Oops, an error
Loading. Please wait.

Celtic Rain Tab

28 views 1 this week
no commentswrite comment
1 2 3 4 5
2 more votes to show rating
add to favorites
launch autoscroll
font size
0
reset
how to read this tab
guitar tuner
Autoscroll
slow
fast
+/-
esc
set tempo
stop
Help us to improve Ultimate-Guitar.com Take our survey!
×
Author
Difficulty
Tuning
intermediate
E A D G B E
---------------------------------------------------------------------------------------
                                         Artist - Mike Oldfield
                                         ************************
                                           Song - Celtic Rain
                                          ********************
                                           Album - The Voyager
                                          ********************
                                          Tabbed By - Ayreon77
                                         **********************
---------------------------------------------------------------------------------------
Tuning = Standard
                                          

00:15
e[--------------6-7--9-7-|-6--s---s--------s------|-----------------h-p--------]
B[---------7--9----------|---9\7-7\4-4----7\9-----|--s--7--------7-5-7-5-4-----]
G[-8-6---8---------------|-------------4----------|-6\8------6-8-----------6---]
D[-----9-----------------|--------------------9-9-|-------9------------------9-]
A[-----------------------|------------------------|----------------------------]
E[-----------------------|------------------------|----------------------------]X2

00:44                                                  s
e[-----------6-7--9-7-------------------|--h--------6-7\9-7--s-------------]
B[-7-9--7-9-----------9-7-------7-------|-7-9--7-9----------9\7-7--------7-]
G[------------------------9-8-6---9-8-6-|-------------------------9-8--6---]
D[--------------------------------------|----------------------------------]
A[--------------------------------------|----------------------------------]
E[--------------------------------------|----------------------------------]

00:58           s
e[--s--------6-7\9-7--s------------------|--s--------6-7----s---------------]
B[-7\9--7-9----------9\7-7-------7-------|-7\9--7-9--------9\7-7------7-7-7-]
G[-------------------------9-8-6---9-8-6-|----------------------9-8-6-------]
D[---------------------------------------|----------------------------------]
A[---------------------------------------|----------------------------------]
E[---------------------------------------|----------------------------------]

 Play all the above again, Some parts little diff, then go to below section
 ~~~~~~~~~~~~~~~~~~~~~~~~~~~~~~~~~~~~~~~~~~~~~~~~~~~~~~~~~~~~~~~~~~~~~~~~~~

02:20
e[--s------h----------------------------s----------s------------------------]
B[-7\9-7--7-9-7----7-------7--------h--7\9-9-7--9-7\4--7--------7-----------]
G[-------------------9-8-6-----h---8-9-------------------9-8-6--------------]
D[---------------9------------9-11--------------------------------9-9-9-9---]
A[--------------------------------------------------------------------------]
E[--------------------------------------------------------------------------]


e[-----------]
B[-----7-----]
G[---4---4-4-]
D[-4---------]
A[-----------]
E[-----------]


02:41
e[------------------6-7--9-7-|-6--s---s--------s------|-----------------h-p--------]
B[-------------7--9----------|---9\7-7\4-4----7\9-----|--s--7--------7-5-7-5-4-----]
G[---6-8-6---8---------------|-------------4----------|-6\8------6-8-----------6---]
D[-9-------9-----------------|--------------------9-9-|-------9------------------9-]
A[---------------------------|------------------------|----------------------------]
E[---------------------------|------------------------|----------------------------]X2

03:10                                                  s
e[-----------6-7--9-7-------------------|--h--------6-7\9-7--s-------------]
B[-7-9--7-9-----------9-7-------7-------|-7-9--7-9----------9\7-7--------7-]
G[------------------------9-8-6---9-8-6-|-------------------------9-8--6---]
D[--------------------------------------|----------------------------------]
A[--------------------------------------|----------------------------------]
E[--------------------------------------|----------------------------------]

03:25
e[--s------h----------------------------s----------s------------------------]
B[-7\9-7--7-9-7----7-------7--------h--7\9-9-7--9-7\4--7--------7-----------]
G[-------------------9-8-6-----h---8-9-------------------9-8-6--------------]
D[---------------9------------9-11--------------------------------9-9-9-9---]
A[--------------------------------------------------------------------------]
E[--------------------------------------------------------------------------]

03:47
e[--------------------6-7--9-7-|-6--s---s--------s------|-----------------h-p--------]
B[---------------7--9----------|---9\7-7\4-4----7\9-----|--s--7--------7-5-7-5-4-----]
G[-----6-8-6---8---------------|-------------4----------|-6\8------6-8-----------6---]
D[---9-------9-----------------|--------------------9-9-|-------9------------------9-]
A[-9---------------------------|------------------------|----------------------------]
E[-----------------------------|------------------------|----------------------------]X4
                                                               fade out...............


ENJOY.........
Suggest correction
Give kudos to tab author, rate the tab!
1 2 3 4 5
comments
print report bad tab
guest
You may want to rate the tab now too:
select rating
Wanna post a correction for this tab? Suggest correction