Oops, an error
Loading. Please wait.

Cochise Tab

version 1
version 1

Whole song

4,123 views 6 this week
no commentswrite comment
1 2 3 4 5
3 more votes to show rating
add to favorites
launch autoscroll
font size
0
reset
how to read this tab
guitar tuner
Autoscroll
slow
fast
+/-
esc
set tempo
stop
Help us to improve Ultimate-Guitar.com Take our survey!
×
Author
Difficulty
intermediate
Cochise-Guitars Mike Oldfield

Lorenzo Montero (lmonteroh@terra.es)

Tried to represent timings as much as possible
Try playing along with the song, might take a few tries. 
Post if there are any mistakes please.

Nylon  Acoustic Guitar
                                                            
E||------------------|------------------|------------------|
B||------------------|------------------|------------------|
G||------------------|------------------|------------------|
D||------------------|------------------|------------------|
A||------------------|------------------|------------------|
E||------------------|------------------|------------------|


                                                                
---------------7--5--|--7----------------|-----------7------7--|
------------7--------|-------------------|------7--------------|
---------------------|-------------------|---------------------|
---------------------|-------------------|---------------------|
---------------------|-------------------|---------------------|
---------------------|-------------------|---------------------|


                                                                
--5-----------------|-----------------5--|-----2--0------------|
-----7--------------|----------5---------|--5------------------|
--------------------|--------------------|---------------------|
--------------------|--------------------|---------------------|
--------------------|--------------------|---------------------|
--------------------|--------------------|---------------------|


                                                                  
----------0--2-0----0--|--2----------------|------------2--7--5--|
-----------------3-----|-------------------|---------------------|
-----------------------|-------------------|---------------------|
-----------------------|-------------------|---------------------|
-----------------------|-------------------|---------------------|
-----------------------|-------------------|---------------------|


                                                               
--7----------------|-----------9------7--|--5-----------------|
-------------------|------7--------------|-----7--------------|
-------------------|---------------------|--------------------|
-------------------|---------------------|--------------------|
-------------------|---------------------|--------------------|
-------------------|---------------------|--------------------|


                                                                   
-----------------5--|-----2--0------------|----------0--2-0----0--|
----------7---------|--5------------------|-----------------3-----|
--------------------|---------------------|-----------------------|
--------------------|---------------------|-----------------------|
--------------------|---------------------|-----------------------|
--------------------|---------------------|-----------------------|


                                                                 
--2----------------|--------2--0-----------|--------------------|
-------------------|--------------3--0-----|--0------------3----|
-------------------|--------------------2--|--------------------|
-------------------|-----------------------|--------------------|
-------------------|-----------------------|--------------------|
-------------------|-----------------------|--------------------|


                                                               
-----------------0--|--2------------5----|--------------2--5--|
--------------3-----|--------------------|--------------------|
--------------------|--------------------|--------------------|
--------------------|--------------------|--------------------|
--------------------|--------------------|--------------------|
--------------------|--------------------|--------------------|


                                                                
--7------------7--9--|--7------------5----|--5--2--------------|
---------------------|--------------------|--------------------|
---------------------|--------------------|--------------------|
---------------------|--------------------|--------------------|
---------------------|--------------------|--------------------|
---------------------|--------------------|--------------------|


                                                                  
--------2--0-----------|--------------------|-----------------0--|
--------------3--0-----|--0------------3----|--------------3-----|
--------------------2--|--------------------|--------------------|
-----------------------|--------------------|--------------------|
-----------------------|--------------------|--------------------|
-----------------------|--------------------|--------------------|


                                                                
--2------------5----|--------------2--5--|--7------------7--9--|
--------------------|--------------------|---------------------|
--------------------|--------------------|---------------------|
--------------------|--------------------|---------------------|
--------------------|--------------------|---------------------|
--------------------|--------------------|---------------------|


                                                              
--7------------5----|--5----------------|--2--0--------------|
--------------------|-------------------|--------------------|
--------------------|-------------------|--------------------|
--------------------|-------------------|--------------------|
--------------------|-------------------|--------------------|
--------------------|-------------------|--------------------|


                                                                            
------------------|------------------|------------------|------------------|
------------------|------------------|------------------|------------------|
------------------|------------------|------------------|------------------|
------------------|------------------|------------------|------------------|
------------------|------------------|------------------|------------------|
------------------|------------------|------------------|------------------|


                                                                            
------------------|------------------|------------------|------------------|
------------------|------------------|------------------|------------------|
------------------|------------------|------------------|------------------|
------------------|------------------|------------------|------------------|
------------------|------------------|------------------|------------------|
------------------|------------------|------------------|------------------|


                                                                            
------------------|------------------|------------------|------------------|
------------------|------------------|------------------|------------------|
------------------|------------------|------------------|------------------|
------------------|------------------|------------------|------------------|
------------------|------------------|------------------|------------------|
------------------|------------------|------------------|------------------|


                                                                            
------------------|------------------|------------------|------------------|
------------------|------------------|------------------|------------------|
------------------|------------------|------------------|------------------|
------------------|------------------|------------------|------------------|
------------------|------------------|------------------|------------------|
------------------|------------------|------------------|------------------|


                                                                            
------------------|------------------|------------------|------------------|
------------------|------------------|------------------|------------------|
------------------|------------------|------------------|------------------|
------------------|------------------|------------------|------------------|
------------------|------------------|------------------|------------------|
------------------|------------------|------------------|------------------|


                                                                            
------------------|------------------|------------------|------------------|
------------------|------------------|------------------|------------------|
------------------|------------------|------------------|------------------|
------------------|------------------|------------------|------------------|
------------------|------------------|------------------|------------------|
------------------|------------------|------------------|------------------|


                                                                            
------------------|------------------|------------------|------------------|
------------------|------------------|------------------|------------------|
------------------|------------------|------------------|------------------|
------------------|------------------|------------------|------------------|
------------------|------------------|------------------|------------------|
------------------|------------------|------------------|------------------|


                                                                               
------------------|------------------|------------------|------------2--7--5--|
------------------|------------------|------------------|---------------------|
------------------|------------------|------------------|---------------------|
------------------|------------------|------------------|---------------------|
------------------|------------------|------------------|---------------------|
------------------|------------------|------------------|---------------------|


                                                               
--7----------------|-----------7------7--|--5-----------------|
-------------------|------7--------------|-----7--------------|
-------------------|---------------------|--------------------|
-------------------|---------------------|--------------------|
-------------------|---------------------|--------------------|
-------------------|---------------------|--------------------|


                                                                   
-----------------5--|-----2--0------------|----------0--2-0----0--|
----------7---------|--5------------------|-----------------3-----|
--------------------|---------------------|-----------------------|
--------------------|---------------------|-----------------------|
--------------------|---------------------|-----------------------|
--------------------|---------------------|-----------------------|


                                                              
--2----------------|------------2--7--5--|--7----------------|
-------------------|---------------------|-------------------|
-------------------|---------------------|-------------------|
-------------------|---------------------|-------------------|
-------------------|---------------------|-------------------|
-------------------|---------------------|-------------------|


                                                                
-----------9------7--|--5-----------------|-----------------5--|
------7--------------|-----7--------------|----------7---------|
---------------------|--------------------|--------------------|
---------------------|--------------------|--------------------|
---------------------|--------------------|--------------------|
---------------------|--------------------|--------------------|


                                                                  
-----2--0------------|----------0--2-0----0--|--2----------------|
--5------------------|-----------------3-----|-------------------|
---------------------|-----------------------|-------------------|
---------------------|-----------------------|-------------------|
---------------------|-----------------------|-------------------|
---------------------|-----------------------|-------------------|


                                                                  
--------2--0-----------|--------------------|-----------------0--|
--------------3--0-----|--0------------3----|--------------3-----|
--------------------2--|--------------------|--------------------|
-----------------------|--------------------|--------------------|
-----------------------|--------------------|--------------------|
-----------------------|--------------------|--------------------|


                                                                
--2------------5----|--------------2--5--|--7------------7--9--|
--------------------|--------------------|---------------------|
--------------------|--------------------|---------------------|
--------------------|--------------------|---------------------|
--------------------|--------------------|---------------------|
--------------------|--------------------|---------------------|


                                                                  
--7------------5----|--5--2--------------|--------2--0-----------|
--------------------|--------------------|--------------3--0-----|
--------------------|--------------------|--------------------2--|
--------------------|--------------------|-----------------------|
--------------------|--------------------|-----------------------|
--------------------|--------------------|-----------------------|


                                                               
--------------------|-----------------0--|--2------------5----|
--0------------3----|--------------3-----|--------------------|
--------------------|--------------------|--------------------|
--------------------|--------------------|--------------------|
--------------------|--------------------|--------------------|
--------------------|--------------------|--------------------|


                                                                
--------------2--5--|--7------------7--9--|--7------------5----|
--------------------|---------------------|--------------------|
--------------------|---------------------|--------------------|
--------------------|---------------------|--------------------|
--------------------|---------------------|--------------------|
--------------------|---------------------|--------------------|


                                                                             
--5----------------|------------------|------------------|------------------|
-------------------|------------------|------------------|------------------|
-------------------|------------------|------------------|------------------|
-------------------|------------------|------------------|------------------|
-------------------|------------------|------------------|------------------|
-------------------|------------------|------------------|------------------|


                                                                            
------------------|------------------|------------------|------------------|
------------------|------------------|------------------|------------------|
------------------|------------------|------------------|------------------|
------------------|------------------|------------------|------------------|
------------------|------------------|------------------|------------------|
------------------|------------------|------------------|------------------|


                                                                            
------------------|------------------|------------------|------------------|
------------------|------------------|------------------|------------------|
------------------|------------------|------------------|------------------|
------------------|------------------|------------------|------------------|
------------------|------------------|------------------|------------------|
------------------|------------------|------------------|------------------|


                                                                            
------------------|------------------|------------------|------------------|
------------------|------------------|------------------|------------------|
------------------|------------------|------------------|------------------|
------------------|------------------|------------------|------------------|
------------------|------------------|------------------|------------------|
------------------|------------------|------------------|------------------|


                                                                            
------------------|------------------|------------------|------------------|
------------------|------------------|------------------|------------------|
------------------|------------------|------------------|------------------|
------------------|------------------|------------------|------------------|
------------------|------------------|------------------|------------------|
------------------|------------------|------------------|------------------|


                                                                            
------------------|------------------|------------------|------------------|
------------------|------------------|------------------|------------------|
------------------|------------------|------------------|------------------|
------------------|------------------|------------------|------------------|
------------------|------------------|------------------|------------------|
------------------|------------------|------------------|------------------|


                                                                            
------------------|------------------|------------------|------------------|
------------------|------------------|------------------|------------------|
------------------|------------------|------------------|------------------|
------------------|------------------|------------------|------------------|
------------------|------------------|------------------|------------------|
------------------|------------------|------------------|------------------|


                                                                            
------------------|------------------|------------------|------------------|
------------------|------------------|------------------|------------------|
------------------|------------------|------------------|------------------|
------------------|------------------|------------------|------------------|
------------------|------------------|------------------|------------------|
------------------|------------------|------------------|------------------|


                                                                            
------------------|------------------|------------------|------------------|
------------------|------------------|------------------|------------------|
------------------|------------------|------------------|------------------|
------------------|------------------|------------------|------------------|
------------------|------------------|------------------|------------------|
------------------|------------------|------------------|------------------|


                                                                            
------------------|------------------|------------------|------------------|
------------------|------------------|------------------|------------------|
------------------|------------------|------------------|------------------|
------------------|------------------|------------------|------------------|
------------------|------------------|------------------|------------------|
------------------|------------------|------------------|------------------|


                                                                            
------------------|------------------|------------------|------------------|
------------------|------------------|------------------|------------------|
------------------|------------------|------------------|------------------|
------------------|------------------|------------------|------------------|
------------------|------------------|------------------|------------------|
------------------|------------------|------------------|------------------|


                                                                            
------------------|------------------|------------------|------------------|
------------------|------------------|------------------|------------------|
------------------|------------------|------------------|------------------|
------------------|------------------|------------------|------------------|
------------------|------------------|------------------|------------------|
------------------|------------------|------------------|------------------|


                                                               
------------------|--------0-------------|--------------------|
------------------|-------------3--0-----|--0------------3----|
------------------|-------------------2--|--------------------|
------------------|----------------------|--------------------|
------------------|----------------------|--------------------|
------------------|----------------------|--------------------|


                                                                                
-----------------0--|--2------------5----|------------------|------------------|
--------------3-----|--------------------|------------------|------------------|
--------------------|--------------------|------------------|------------------|
--------------------|--------------------|------------------|------------------|
--------------------|--------------------|------------------|------------------|
--------------------|--------------------|------------------|------------------|


                                                              
------------------|------------------|--------2--0-----------|
------------------|------------------|--------------3--0-----|
------------------|------------------|--------------------2--|
------------------|------------------|-----------------------|
------------------|------------------|-----------------------|
------------------|------------------|-----------------------|


                                                               
--------------------|-----------------0--|--2------------5----|
--0------------3----|--------------3-----|--------------------|
--------------------|--------------------|--------------------|
--------------------|--------------------|--------------------|
--------------------|--------------------|--------------------|
--------------------|--------------------|--------------------|


                                                                            
------------------|------------------|------------------|------------------|
------------------|------------------|------------------|------------------|
------------------|------------------|------------------|------------------|
------------------|------------------|------------------|------------------|
------------------|------------------|------------------|------------------|
------------------|------------------|------------------|------------------|


                                                                            
------------------|------------------|------------------|------------------|
------------------|------------------|------------------|------------------|
------------------|------------------|------------------|------------------|
------------------|------------------|------------------|------------------|
------------------|------------------|------------------|------------------|
------------------|------------------|------------------|------------------|


                                                                            
------------------|------------------|------------------|------------------|
------------------|------------------|------------------|------------------|
------------------|------------------|------------------|------------------|
------------------|------------------|------------------|------------------|
------------------|------------------|------------------|------------------|
------------------|------------------|------------------|------------------|


                                                                            
------------------|------------------|------------------|------------------|
------------------|------------------|------------------|------------------|
------------------|------------------|------------------|------------------|
------------------|------------------|------------------|------------------|
------------------|------------------|------------------|------------------|
------------------|------------------|------------------|------------------|





Acou Guitar
                                                                              
E||--2----2--2--2----2--2--|--2----2--2--2----2--2--|--2----2--2--2----2--2--|
B||--3----3--3--3----3--3--|--3----3--3--3----3--3--|--3----3--3--3----3--3--|
G||--4----4--4--4----4--4--|--4----4--4--4----4--4--|--4----4--4--4----4--4--|
D||--4----4--4--4----4--4--|--4----4--4--4----4--4--|--4----4--4--4----4--4--|
A||--2----2--2--2----2--2--|--2----2--2--2----2--2--|--2----2--2--2----2--2--|
E||------------------------|------------------------|------------------------|


                                                                           
--2----2--2--2----2--2--|--2----2--2--2----2--2--|--2----2--2--2----2--2--|
--3----3--3--3----3--3--|--3----3--3--3----3--3--|--3----3--3--3----3--3--|
--4----4--4--4----4--4--|--4----4--4--4----4--4--|--4----4--4--4----4--4--|
--4----4--4--4----4--4--|--4----4--4--4----4--4--|--4----4--4--4----4--4--|
--2----2--2--2----2--2--|--2----2--2--2----2--2--|--2----2--2--2----2--2--|
------------------------|------------------------|------------------------|


                                                                           
--2----2--2--2----2--2--|--2----2--2--2----2--2--|--0----0--0--0----0--0--|
--2----2--2--2----2--2--|--2----2--2--2----2--2--|--0----0--0--0----0--0--|
--2----2--2--2----2--2--|--2----2--2--2----2--2--|--0----0--0--0----0--0--|
--4----4--4--4----4--4--|--4----4--4--4----4--4--|--2----2--2--2----2--2--|
--4----4--4--4----4--4--|--4----4--4--4----4--4--|--2----2--2--2----2--2--|
--2----2--2--2----2--2--|--2----2--2--2----2--2--|--0----0--0--0----0--0--|


                                                                           
--0----0--0--0----0--0--|--2----2--2--2----2--2--|--2----2--2--2----2--2--|
--0----0--0--0----0--0--|--2----2--2--2----2--2--|--2----2--2--2----2--2--|
--0----0--0--0----0--0--|--2----2--2--2----2--2--|--2----2--2--2----2--2--|
--2----2--2--2----2--2--|--4----4--4--4----4--4--|--4----4--4--4----4--4--|
--2----2--2--2----2--2--|--4----4--4--4----4--4--|--4----4--4--4----4--4--|
--0----0--0--0----0--0--|--2----2--2--2----2--2--|--2----2--2--2----2--2--|


                                                                           
--2----2--2--2----2--2--|--2----2--2--2----2--2--|--2----2--2--2----2--2--|
--3----3--3--3----3--3--|--3----3--3--3----3--3--|--2----2--2--2----2--2--|
--4----4--4--4----4--4--|--4----4--4--4----4--4--|--2----2--2--2----2--2--|
--4----4--4--4----4--4--|--4----4--4--4----4--4--|--4----4--4--4----4--4--|
--2----2--2--2----2--2--|--2----2--2--2----2--2--|--4----4--4--4----4--4--|
------------------------|------------------------|--2----2--2--2----2--2--|


                                                                           
--2----2--2--2----2--2--|--0----0--0--0----0--0--|--0----0--0--0----0--0--|
--2----2--2--2----2--2--|--0----0--0--0----0--0--|--0----0--0--0----0--0--|
--2----2--2--2----2--2--|--0----0--0--0----0--0--|--0----0--0--0----0--0--|
--4----4--4--4----4--4--|--2----2--2--2----2--2--|--2----2--2--2----2--2--|
--4----4--4--4----4--4--|--2----2--2--2----2--2--|--2----2--2--2----2--2--|
--2----2--2--2----2--2--|--0----0--0--0----0--0--|--0----0--0--0----0--0--|


                                                                           
--2----2--2--2----2--2--|--2----2--2--2----2--2--|--3----3--3--3----3--3--|
--2----2--2--2----2--2--|--2----2--2--2----2--2--|--3----3--3--3----3--3--|
--2----2--2--2----2--2--|--2----2--2--2----2--2--|--4----4--4--4----4--4--|
--4----4--4--4----4--4--|--4----4--4--4----4--4--|--5----5--5--5----5--5--|
--4----4--4--4----4--4--|--4----4--4--4----4--4--|--5----5--5--5----5--5--|
--2----2--2--2----2--2--|--2----2--2--2----2--2--|--3----3--3--3----3--3--|


                                                                           
--3----3--3--3----3--3--|--5----5--5--5----5--5--|--5----5--5--5----5--5--|
--3----3--3--3----3--3--|--5----5--5--5----5--5--|--5----5--5--5----5--5--|
--4----4--4--4----4--4--|--6----6--6--6----6--6--|--6----6--6--6----6--6--|
--5----5--5--5----5--5--|--7----7--7--7----7--7--|--7----7--7--7----7--7--|
--5----5--5--5----5--5--|--7----7--7--7----7--7--|--7----7--7--7----7--7--|
--3----3--3--3----3--3--|--5----5--5--5----5--5--|--5----5--5--5----5--5--|


                                                                           
--3----3--3--3----3--3--|--3----3--3--3----3--3--|--2----2--2--2----2--2--|
--3----3--3--3----3--3--|--3----3--3--3----3--3--|--3----3--3--3----3--3--|
--4----4--4--4----4--4--|--4----4--4--4----4--4--|--4----4--4--4----4--4--|
--5----5--5--5----5--5--|--5----5--5--5----5--5--|--4----4--4--4----4--4--|
--5----5--5--5----5--5--|--5----5--5--5----5--5--|--2----2--2--2----2--2--|
--3----3--3--3----3--3--|--3----3--3--3----3--3--|------------------------|


                                                                           
--2----2--2--2----2--2--|--3----3--3--3----3--3--|--3----3--3--3----3--3--|
--3----3--3--3----3--3--|--3----3--3--3----3--3--|--3----3--3--3----3--3--|
--4----4--4--4----4--4--|--4----4--4--4----4--4--|--4----4--4--4----4--4--|
--4----4--4--4----4--4--|--5----5--5--5----5--5--|--5----5--5--5----5--5--|
--2----2--2--2----2--2--|--5----5--5--5----5--5--|--5----5--5--5----5--5--|
------------------------|--3----3--3--3----3--3--|--3----3--3--3----3--3--|


                                                                           
--5----5--5--5----5--5--|--5----5--5--5----5--5--|--3----3--3--3----3--3--|
--5----5--5--5----5--5--|--5----5--5--5----5--5--|--3----3--3--3----3--3--|
--6----6--6--6----6--6--|--6----6--6--6----6--6--|--4----4--4--4----4--4--|
--7----7--7--7----7--7--|--7----7--7--7----7--7--|--5----5--5--5----5--5--|
--7----7--7--7----7--7--|--7----7--7--7----7--7--|--5----5--5--5----5--5--|
--5----5--5--5----5--5--|--5----5--5--5----5--5--|--3----3--3--3----3--3--|


                                                                           
--3----3--3--3----3--3--|--2----2--2--2----2--2--|--2----2--2--2----2--2--|
--3----3--3--3----3--3--|--3----3--3--3----3--3--|--3----3--3--3----3--3--|
--4----4--4--4----4--4--|--4----4--4--4----4--4--|--4----4--4--4----4--4--|
--5----5--5--5----5--5--|--4----4--4--4----4--4--|--4----4--4--4----4--4--|
--5----5--5--5----5--5--|--2----2--2--2----2--2--|--2----2--2--2----2--2--|
--3----3--3--3----3--3--|------------------------|------------------------|


                                                                           
--2----2--2--2----2--2--|--2----2--2--2----2--2--|--2----2--2--2----2--2--|
--3----3--3--3----3--3--|--3----3--3--3----3--3--|--2----2--2--2----2--2--|
--4----4--4--4----4--4--|--4----4--4--4----4--4--|--2----2--2--2----2--2--|
--4----4--4--4----4--4--|--4----4--4--4----4--4--|--4----4--4--4----4--4--|
--2----2--2--2----2--2--|--2----2--2--2----2--2--|--4----4--4--4----4--4--|
------------------------|------------------------|--2----2--2--2----2--2--|


                                                                           
--2----2--2--2----2--2--|--0----0--0--0----0--0--|--0----0--0--0----0--0--|
--2----2--2--2----2--2--|--0----0--0--0----0--0--|--0----0--0--0----0--0--|
--2----2--2--2----2--2--|--0----0--0--0----0--0--|--0----0--0--0----0--0--|
--4----4--4--4----4--4--|--2----2--2--2----2--2--|--2----2--2--2----2--2--|
--4----4--4--4----4--4--|--2----2--2--2----2--2--|--2----2--2--2----2--2--|
--2----2--2--2----2--2--|--0----0--0--0----0--0--|--0----0--0--0----0--0--|


                                                                           
--2----2--2--2----2--2--|--2----2--2--2----2--2--|--3----3--3--3----3--3--|
--2----2--2--2----2--2--|--2----2--2--2----2--2--|--3----3--3--3----3--3--|
--2----2--2--2----2--2--|--2----2--2--2----2--2--|--4----4--4--4----4--4--|
--4----4--4--4----4--4--|--4----4--4--4----4--4--|--5----5--5--5----5--5--|
--4----4--4--4----4--4--|--4----4--4--4----4--4--|--5----5--5--5----5--5--|
--2----2--2--2----2--2--|--2----2--2--2----2--2--|--3----3--3--3----3--3--|


                                                                           
--3----3--3--3----3--3--|--5----5--5--5----5--5--|--5----5--5--5----5--5--|
--3----3--3--3----3--3--|--5----5--5--5----5--5--|--5----5--5--5----5--5--|
--4----4--4--4----4--4--|--6----6--6--6----6--6--|--6----6--6--6----6--6--|
--5----5--5--5----5--5--|--7----7--7--7----7--7--|--7----7--7--7----7--7--|
--5----5--5--5----5--5--|--7----7--7--7----7--7--|--7----7--7--7----7--7--|
--3----3--3--3----3--3--|--5----5--5--5----5--5--|--5----5--5--5----5--5--|


                                                                           
--3----3--3--3----3--3--|--3----3--3--3----3--3--|--2----2--2--2----2--2--|
--3----3--3--3----3--3--|--3----3--3--3----3--3--|--3----3--3--3----3--3--|
--4----4--4--4----4--4--|--4----4--4--4----4--4--|--4----4--4--4----4--4--|
--5----5--5--5----5--5--|--5----5--5--5----5--5--|--4----4--4--4----4--4--|
--5----5--5--5----5--5--|--5----5--5--5----5--5--|--2----2--2--2----2--2--|
--3----3--3--3----3--3--|--3----3--3--3----3--3--|------------------------|


                                                                           
--2----2--2--2----2--2--|--2----2--2--2----2--2--|--2----2--2--2----2--2--|
--3----3--3--3----3--3--|--3----3--3--3----3--3--|--3----3--3--3----3--3--|
--4----4--4--4----4--4--|--4----4--4--4----4--4--|--4----4--4--4----4--4--|
--4----4--4--4----4--4--|--4----4--4--4----4--4--|--4----4--4--4----4--4--|
--2----2--2--2----2--2--|--2----2--2--2----2--2--|--2----2--2--2----2--2--|
------------------------|------------------------|------------------------|


                                                                           
--2----2--2--2----2--2--|--2----2--2--2----2--2--|--0----0--0--0----0--0--|
--2----2--2--2----2--2--|--2----2--2--2----2--2--|--0----0--0--0----0--0--|
--2----2--2--2----2--2--|--2----2--2--2----2--2--|--0----0--0--0----0--0--|
--4----4--4--4----4--4--|--4----4--4--4----4--4--|--2----2--2--2----2--2--|
--4----4--4--4----4--4--|--4----4--4--4----4--4--|--2----2--2--2----2--2--|
--2----2--2--2----2--2--|--2----2--2--2----2--2--|--0----0--0--0----0--0--|


                                                                           
--0----0--0--0----0--0--|--2----2--2--2----2--2--|--2----2--2--2----2--2--|
--0----0--0--0----0--0--|--2----2--2--2----2--2--|--2----2--2--2----2--2--|
--0----0--0--0----0--0--|--2----2--2--2----2--2--|--2----2--2--2----2--2--|
--2----2--2--2----2--2--|--4----4--4--4----4--4--|--4----4--4--4----4--4--|
--2----2--2--2----2--2--|--4----4--4--4----4--4--|--4----4--4--4----4--4--|
--0----0--0--0----0--0--|--2----2--2--2----2--2--|--2----2--2--2----2--2--|


                                                                           
--3----3--3--3----3--3--|--3----3--3--3----3--3--|--5----5--5--5----5--5--|
--3----3--3--3----3--3--|--3----3--3--3----3--3--|--5----5--5--5----5--5--|
--4----4--4--4----4--4--|--4----4--4--4----4--4--|--6----6--6--6----6--6--|
--5----5--5--5----5--5--|--5----5--5--5----5--5--|--7----7--7--7----7--7--|
--5----5--5--5----5--5--|--5----5--5--5----5--5--|--7----7--7--7----7--7--|
--3----3--3--3----3--3--|--3----3--3--3----3--3--|--5----5--5--5----5--5--|


                                                                           
--5----5--5--5----5--5--|--3----3--3--3----3--3--|--3----3--3--3----3--3--|
--5----5--5--5----5--5--|--3----3--3--3----3--3--|--3----3--3--3----3--3--|
--6----6--6--6----6--6--|--4----4--4--4----4--4--|--4----4--4--4----4--4--|
--7----7--7--7----7--7--|--5----5--5--5----5--5--|--5----5--5--5----5--5--|
--7----7--7--7----7--7--|--5----5--5--5----5--5--|--5----5--5--5----5--5--|
--5----5--5--5----5--5--|--3----3--3--3----3--3--|--3----3--3--3----3--3--|


                                                                
--3----------------|------------------|--2----2--2--2----2--2--|
--3----------------|------------------|--3----3--3--3----3--3--|
--4----------------|------------------|--4----4--4--4----4--4--|
--5----------------|------------------|--4----4--4--4----4--4--|
--5----------------|------------------|--2----2--2--2----2--2--|
--3----------------|------------------|------------------------|


                                                                           
--2----2--2--2----2--2--|--2----2--2--2----2--2--|--2----2--2--2----2--2--|
--3----3--3--3----3--3--|--2----2--2--2----2--2--|--2----2--2--2----2--2--|
--4----4--4--4----4--4--|--2----2--2--2----2--2--|--2----2--2--2----2--2--|
--4----4--4--4----4--4--|--4----4--4--4----4--4--|--4----4--4--4----4--4--|
--2----2--2--2----2--2--|--4----4--4--4----4--4--|--4----4--4--4----4--4--|
------------------------|--2----2--2--2----2--2--|--2----2--2--2----2--2--|


                                                                           
--0----0--0--0----0--0--|--0----0--0--0----0--0--|--2----2--2--2----2--2--|
--0----0--0--0----0--0--|--0----0--0--0----0--0--|--2----2--2--2----2--2--|
--0----0--0--0----0--0--|--0----0--0--0----0--0--|--2----2--2--2----2--2--|
--2----2--2--2----2--2--|--2----2--2--2----2--2--|--4----4--4--4----4--4--|
--2----2--2--2----2--2--|--2----2--2--2----2--2--|--4----4--4--4----4--4--|
--0----0--0--0----0--0--|--0----0--0--0----0--0--|--2----2--2--2----2--2--|


                                                                           
--2----2--2--2----2--2--|--2----2--2--2----2--2--|--2----2--2--2----2--2--|
--2----2--2--2----2--2--|--3----3--3--3----3--3--|--3----3--3--3----3--3--|
--2----2--2--2----2--2--|--4----4--4--4----4--4--|--4----4--4--4----4--4--|
--4----4--4--4----4--4--|--4----4--4--4----4--4--|--4----4--4--4----4--4--|
--4----4--4--4----4--4--|--2----2--2--2----2--2--|--2----2--2--2----2--2--|
--2----2--2--2----2--2--|------------------------|------------------------|


                                                                           
--2----2--2--2----2--2--|--2----2--2--2----2--2--|--0----0--0--0----0--0--|
--2----2--2--2----2--2--|--2----2--2--2----2--2--|--0----0--0--0----0--0--|
--2----2--2--2----2--2--|--2----2--2--2----2--2--|--0----0--0--0----0--0--|
--4----4--4--4----4--4--|--4----4--4--4----4--4--|--2----2--2--2----2--2--|
--4----4--4--4----4--4--|--4----4--4--4----4--4--|--2----2--2--2----2--2--|
--2----2--2--2----2--2--|--2----2--2--2----2--2--|--0----0--0--0----0--0--|


                                                                           
--0----0--0--0----0--0--|--2----2--2--2----2--2--|--2----2--2--2----2--2--|
--0----0--0--0----0--0--|--2----2--2--2----2--2--|--2----2--2--2----2--2--|
--0----0--0--0----0--0--|--2----2--2--2----2--2--|--2----2--2--2----2--2--|
--2----2--2--2----2--2--|--4----4--4--4----4--4--|--4----4--4--4----4--4--|
--2----2--2--2----2--2--|--4----4--4--4----4--4--|--4----4--4--4----4--4--|
--0----0--0--0----0--0--|--2----2--2--2----2--2--|--2----2--2--2----2--2--|


                                                                           
--3----3--3--3----3--3--|--3----3--3--3----3--3--|--5----5--5--5----5--5--|
--3----3--3--3----3--3--|--3----3--3--3----3--3--|--5----5--5--5----5--5--|
--4----4--4--4----4--4--|--4----4--4--4----4--4--|--6----6--6--6----6--6--|
--5----5--5--5----5--5--|--5----5--5--5----5--5--|--7----7--7--7----7--7--|
--5----5--5--5----5--5--|--5----5--5--5----5--5--|--7----7--7--7----7--7--|
--3----3--3--3----3--3--|--3----3--3--3----3--3--|--5----5--5--5----5--5--|


                                                                           
--5----5--5--5----5--5--|--3----3--3--3----3--3--|--3----3--3--3----3--3--|
--5----5--5--5----5--5--|--3----3--3--3----3--3--|--3----3--3--3----3--3--|
--6----6--6--6----6--6--|--4----4--4--4----4--4--|--4----4--4--4----4--4--|
--7----7--7--7----7--7--|--5----5--5--5----5--5--|--5----5--5--5----5--5--|
--7----7--7--7----7--7--|--5----5--5--5----5--5--|--5----5--5--5----5--5--|
--5----5--5--5----5--5--|--3----3--3--3----3--3--|--3----3--3--3----3--3--|


                                                                           
--2----2--2--2----2--2--|--2----2--2--2----2--2--|--3----3--3--3----3--3--|
--3----3--3--3----3--3--|--3----3--3--3----3--3--|--3----3--3--3----3--3--|
--4----4--4--4----4--4--|--4----4--4--4----4--4--|--4----4--4--4----4--4--|
--4----4--4--4----4--4--|--4----4--4--4----4--4--|--5----5--5--5----5--5--|
--2----2--2--2----2--2--|--2----2--2--2----2--2--|--5----5--5--5----5--5--|
------------------------|------------------------|--3----3--3--3----3--3--|


                                                                           
--3----3--3--3----3--3--|--5----5--5--5----5--5--|--5----5--5--5----5--5--|
--3----3--3--3----3--3--|--5----5--5--5----5--5--|--5----5--5--5----5--5--|
--4----4--4--4----4--4--|--6----6--6--6----6--6--|--6----6--6--6----6--6--|
--5----5--5--5----5--5--|--7----7--7--7----7--7--|--7----7--7--7----7--7--|
--5----5--5--5----5--5--|--7----7--7--7----7--7--|--7----7--7--7----7--7--|
--3----3--3--3----3--3--|--5----5--5--5----5--5--|--5----5--5--5----5--5--|


                                                                           
--3----3--3--3----3--3--|--3----3--3--3----3--3--|--2----2--2--2----2--2--|
--3----3--3--3----3--3--|--3----3--3--3----3--3--|--3----3--3--3----3--3--|
--4----4--4--4----4--4--|--4----4--4--4----4--4--|--4----4--4--4----4--4--|
--5----5--5--5----5--5--|--5----5--5--5----5--5--|--4----4--4--4----4--4--|
--5----5--5--5----5--5--|--5----5--5--5----5--5--|--2----2--2--2----2--2--|
--3----3--3--3----3--3--|--3----3--3--3----3--3--|------------------------|


                                                                       
--2-----------------|--2----2--2--2----2--2--|--2----2--2--2----2--2--|
--3-----------------|--3----3--3--3----3--3--|--3----3--3--3----3--3--|
--4-----------------|--4----4--4--4----4--4--|--4----4--4--4----4--4--|
--4-----------------|--4----4--4--4----4--4--|--4----4--4--4----4--4--|
--2-----------------|--2----2--2--2----2--2--|--2----2--2--2----2--2--|
--------------------|------------------------|------------------------|


                                                                           
--2----2--2--2----2--2--|--2----2--2--2----2--2--|--0----0--0--0----0--0--|
--2----2--2--2----2--2--|--2----2--2--2----2--2--|--0----0--0--0----0--0--|
--2----2--2--2----2--2--|--2----2--2--2----2--2--|--0----0--0--0----0--0--|
--4----4--4--4----4--4--|--4----4--4--4----4--4--|--2----2--2--2----2--2--|
--4----4--4--4----4--4--|--4----4--4--4----4--4--|--2----2--2--2----2--2--|
--2----2--2--2----2--2--|--2----2--2--2----2--2--|--0----0--0--0----0--0--|


                                                                           
--0----0--0--0----0--0--|--2----2--2--2----2--2--|--2----2--2--2----2--2--|
--0----0--0--0----0--0--|--2----2--2--2----2--2--|--2----2--2--2----2--2--|
--0----0--0--0----0--0--|--2----2--2--2----2--2--|--2----2--2--2----2--2--|
--2----2--2--2----2--2--|--4----4--4--4----4--4--|--4----4--4--4----4--4--|
--2----2--2--2----2--2--|--4----4--4--4----4--4--|--4----4--4--4----4--4--|
--0----0--0--0----0--0--|--2----2--2--2----2--2--|--2----2--2--2----2--2--|


                                                                           
--3----3--3--3----3--3--|--3----3--3--3----3--3--|--5----5--5--5----5--5--|
--3----3--3--3----3--3--|--3----3--3--3----3--3--|--5----5--5--5----5--5--|
--4----4--4--4----4--4--|--4----4--4--4----4--4--|--6----6--6--6----6--6--|
--5----5--5--5----5--5--|--5----5--5--5----5--5--|--7----7--7--7----7--7--|
--5----5--5--5----5--5--|--5----5--5--5----5--5--|--7----7--7--7----7--7--|
--3----3--3--3----3--3--|--3----3--3--3----3--3--|--5----5--5--5----5--5--|


                                                                           
--5----5--5--5----5--5--|--3----3--3--3----3--3--|--3----3--3--3----3--3--|
--5----5--5--5----5--5--|--3----3--3--3----3--3--|--3----3--3--3----3--3--|
--6----6--6--6----6--6--|--4----4--4--4----4--4--|--4----4--4--4----4--4--|
--7----7--7--7----7--7--|--5----5--5--5----5--5--|--5----5--5--5----5--5--|
--7----7--7--7----7--7--|--5----5--5--5----5--5--|--5----5--5--5----5--5--|
--5----5--5--5----5--5--|--3----3--3--3----3--3--|--3----3--3--3----3--3--|


                                                                           
--2----2--2--2----2--2--|--2----2--2--2----2--2--|--2----2--2--2----2--2--|
--3----3--3--3----3--3--|--3----3--3--3----3--3--|--3----3--3--3----3--3--|
--4----4--4--4----4--4--|--4----4--4--4----4--4--|--4----4--4--4----4--4--|
--4----4--4--4----4--4--|--4----4--4--4----4--4--|--4----4--4--4----4--4--|
--2----2--2--2----2--2--|--2----2--2--2----2--2--|--2----2--2--2----2--2--|
------------------------|------------------------|------------------------|


                                                                           
--2----2--2--2----2--2--|--2----2--2--2----2--2--|--2----2--2--2----2--2--|
--3----3--3--3----3--3--|--2----2--2--2----2--2--|--2----2--2--2----2--2--|
--4----4--4--4----4--4--|--2----2--2--2----2--2--|--2----2--2--2----2--2--|
--4----4--4--4----4--4--|--4----4--4--4----4--4--|--4----4--4--4----4--4--|
--2----2--2--2----2--2--|--4----4--4--4----4--4--|--4----4--4--4----4--4--|
------------------------|--2----2--2--2----2--2--|--2----2--2--2----2--2--|


                                                                           
--0----0--0--0----0--0--|--0----0--0--0----0--0--|--2----2--2--2----2--2--|
--0----0--0--0----0--0--|--0----0--0--0----0--0--|--2----2--2--2----2--2--|
--0----0--0--0----0--0--|--0----0--0--0----0--0--|--2----2--2--2----2--2--|
--2----2--2--2----2--2--|--2----2--2--2----2--2--|--4----4--4--4----4--4--|
--2----2--2--2----2--2--|--2----2--2--2----2--2--|--4----4--4--4----4--4--|
--0----0--0--0----0--0--|--0----0--0--0----0--0--|--2----2--2--2----2--2--|


                                                                           
--2----2--2--2----2--2--|--3----3--3--3----3--3--|--3----3--3--3----3--3--|
--2----2--2--2----2--2--|--3----3--3--3----3--3--|--3----3--3--3----3--3--|
--2----2--2--2----2--2--|--4----4--4--4----4--4--|--4----4--4--4----4--4--|
--4----4--4--4----4--4--|--5----5--5--5----5--5--|--5----5--5--5----5--5--|
--4----4--4--4----4--4--|--5----5--5--5----5--5--|--5----5--5--5----5--5--|
--2----2--2--2----2--2--|--3----3--3--3----3--3--|--3----3--3--3----3--3--|


                                                                           
--5----5--5--5----5--5--|--5----5--5--5----5--5--|--3----3--3--3----3--3--|
--5----5--5--5----5--5--|--5----5--5--5----5--5--|--3----3--3--3----3--3--|
--6----6--6--6----6--6--|--6----6--6--6----6--6--|--4----4--4--4----4--4--|
--7----7--7--7----7--7--|--7----7--7--7----7--7--|--5----5--5--5----5--5--|
--7----7--7--7----7--7--|--7----7--7--7----7--7--|--5----5--5--5----5--5--|
--5----5--5--5----5--5--|--5----5--5--5----5--5--|--3----3--3--3----3--3--|


                                                                
--3----3--3--3----3--3--|--3----------------|------------------|
--3----3--3--3----3--3--|--3----------------|------------------|
--4----4--4--4----4--4--|--4----------------|------------------|
--5----5--5--5----5--5--|--5----------------|------------------|
--5----5--5--5----5--5--|--5----------------|------------------|
--3----3--3--3----3--3--|--3----------------|------------------|


                                                                           
--2----2--2--2----2--2--|--2----2--2--2----2--2--|--2----2--2--2----2--2--|
--3----3--3--3----3--3--|--3----3--3--3----3--3--|--2----2--2--2----2--2--|
--4----4--4--4----4--4--|--4----4--4--4----4--4--|--2----2--2--2----2--2--|
--4----4--4--4----4--4--|--4----4--4--4----4--4--|--4----4--4--4----4--4--|
--2----2--2--2----2--2--|--2----2--2--2----2--2--|--4----4--4--4----4--4--|
------------------------|------------------------|--2----2--2--2----2--2--|


                                                                           
--2----2--2--2----2--2--|--0----0--0--0----0--0--|--0----0--0--0----0--0--|
--2----2--2--2----2--2--|--0----0--0--0----0--0--|--0----0--0--0----0--0--|
--2----2--2--2----2--2--|--0----0--0--0----0--0--|--0----0--0--0----0--0--|
--4----4--4--4----4--4--|--2----2--2--2----2--2--|--2----2--2--2----2--2--|
--4----4--4--4----4--4--|--2----2--2--2----2--2--|--2----2--2--2----2--2--|
--2----2--2--2----2--2--|--0----0--0--0----0--0--|--0----0--0--0----0--0--|


                                                                           
--2----2--2--2----2--2--|--2----2--2--2----2--2--|--2----2--2--2----2--2--|
--2----2--2--2----2--2--|--2----2--2--2----2--2--|--3----3--3--3----3--3--|
--2----2--2--2----2--2--|--2----2--2--2----2--2--|--4----4--4--4----4--4--|
--4----4--4--4----4--4--|--4----4--4--4----4--4--|--4----4--4--4----4--4--|
--4----4--4--4----4--4--|--4----4--4--4----4--4--|--2----2--2--2----2--2--|
--2----2--2--2----2--2--|--2----2--2--2----2--2--|------------------------|


                                                                           
--2----2--2--2----2--2--|--2----2--2--2----2--2--|--2----2--2--2----2--2--|
--3----3--3--3----3--3--|--2----2--2--2----2--2--|--2----2--2--2----2--2--|
--4----4--4--4----4--4--|--2----2--2--2----2--2--|--2----2--2--2----2--2--|
--4----4--4--4----4--4--|--4----4--4--4----4--4--|--4----4--4--4----4--4--|
--2----2--2--2----2--2--|--4----4--4--4----4--4--|--4----4--4--4----4--4--|
------------------------|--2----2--2--2----2--2--|--2----2--2--2----2--2--|


                                                                           
--0----0--0--0----0--0--|--0----0--0--0----0--0--|--2----2--2--2----2--2--|
--0----0--0--0----0--0--|--0----0--0--0----0--0--|--2----2--2--2----2--2--|
--0----0--0--0----0--0--|--0----0--0--0----0--0--|--2----2--2--2----2--2--|
--2----2--2--2----2--2--|--2----2--2--2----2--2--|--4----4--4--4----4--4--|
--2----2--2--2----2--2--|--2----2--2--2----2--2--|--4----4--4--4----4--4--|
--0----0--0--0----0--0--|--0----0--0--0----0--0--|--2----2--2--2----2--2--|


                                                                           
--2----2--2--2----2--2--|--3----3--3--3----3--3--|--3----3--3--3----3--3--|
--2----2--2--2----2--2--|--3----3--3--3----3--3--|--3----3--3--3----3--3--|
--2----2--2--2----2--2--|--4----4--4--4----4--4--|--4----4--4--4----4--4--|
--4----4--4--4----4--4--|--5----5--5--5----5--5--|--5----5--5--5----5--5--|
--4----4--4--4----4--4--|--5----5--5--5----5--5--|--5----5--5--5----5--5--|
--2----2--2--2----2--2--|--3----3--3--3----3--3--|--3----3--3--3----3--3--|


                                                                           
--5----5--5--5----5--5--|--5----5--5--5----5--5--|--3----3--3--3----3--3--|
--5----5--5--5----5--5--|--5----5--5--5----5--5--|--3----3--3--3----3--3--|
--6----6--6--6----6--6--|--6----6--6--6----6--6--|--4----4--4--4----4--4--|
--7----7--7--7----7--7--|--7----7--7--7----7--7--|--5----5--5--5----5--5--|
--7----7--7--7----7--7--|--7----7--7--7----7--7--|--5----5--5--5----5--5--|
--5----5--5--5----5--5--|--5----5--5--5----5--5--|--3----3--3--3----3--3--|


                                                                           
--3----3--3--3----3--3--|--2----2--2--2----2--2--|--2----2--2--2----2--2--|
--3----3--3--3----3--3--|--3----3--3--3----3--3--|--3----3--3--3----3--3--|
--4----4--4--4----4--4--|--4----4--4--4----4--4--|--4----4--4--4----4--4--|
--5----5--5--5----5--5--|--4----4--4--4----4--4--|--4----4--4--4----4--4--|
--5----5--5--5----5--5--|--2----2--2--2----2--2--|--2----2--2--2----2--2--|
--3----3--3--3----3--3--|------------------------|------------------------|


                                                                           
--3----3--3--3----3--3--|--3----3--3--3----3--3--|--5----5--5--5----5--5--|
--3----3--3--3----3--3--|--3----3--3--3----3--3--|--5----5--5--5----5--5--|
--4----4--4--4----4--4--|--4----4--4--4----4--4--|--6----6--6--6----6--6--|
--5----5--5--5----5--5--|--5----5--5--5----5--5--|--7----7--7--7----7--7--|
--5----5--5--5----5--5--|--5----5--5--5----5--5--|--7----7--7--7----7--7--|
--3----3--3--3----3--3--|--3----3--3--3----3--3--|--5----5--5--5----5--5--|


                                                                           
--5----5--5--5----5--5--|--3----3--3--3----3--3--|--3----3--3--3----3--3--|
--5----5--5--5----5--5--|--3----3--3--3----3--3--|--3----3--3--3----3--3--|
--6----6--6--6----6--6--|--4----4--4--4----4--4--|--4----4--4--4----4--4--|
--7----7--7--7----7--7--|--5----5--5--5----5--5--|--5----5--5--5----5--5--|
--7----7--7--7----7--7--|--5----5--5--5----5--5--|--5----5--5--5----5--5--|
--5----5--5--5----5--5--|--3----3--3--3----3--3--|--3----3--3--3----3--3--|


                                                                       
--2----2--2--2----2--2--|--2-----------------|--2----2--2--2----2--2--|
--3----3--3--3----3--3--|--3-----------------|--3----3--3--3----3--3--|
--4----4--4--4----4--4--|--4-----------------|--4----4--4--4----4--4--|
--4----4--4--4----4--4--|--4-----------------|--4----4--4--4----4--4--|
--2----2--2--2----2--2--|--2-----------------|--2----2--2--2----2--2--|
------------------------|--------------------|------------------------|


                                                                           
--2----2--2--2----2--2--|--2----2--2--2----2--2--|--2----2--2--2----2--2--|
--3----3--3--3----3--3--|--2----2--2--2----2--2--|--2----2--2--2----2--2--|
--4----4--4--4----4--4--|--2----2--2--2----2--2--|--2----2--2--2----2--2--|
--4----4--4--4----4--4--|--4----4--4--4----4--4--|--4----4--4--4----4--4--|
--2----2--2--2----2--2--|--4----4--4--4----4--4--|--4----4--4--4----4--4--|
------------------------|--2----2--2--2----2--2--|--2----2--2--2----2--2--|


                                                                           
--0----0--0--0----0--0--|--0----0--0--0----0--0--|--2----2--2--2----2--2--|
--0----0--0--0----0--0--|--0----0--0--0----0--0--|--2----2--2--2----2--2--|
--0----0--0--0----0--0--|--0----0--0--0----0--0--|--2----2--2--2----2--2--|
--2----2--2--2----2--2--|--2----2--2--2----2--2--|--4----4--4--4----4--4--|
--2----2--2--2----2--2--|--2----2--2--2----2--2--|--4----4--4--4----4--4--|
--0----0--0--0----0--0--|--0----0--0--0----0--0--|--2----2--2--2----2--2--|


                                                                           
--2----2--2--2----2--2--|--3----3--3--3----3--3--|--3----3--3--3----3--3--|
--2----2--2--2----2--2--|--3----3--3--3----3--3--|--3----3--3--3----3--3--|
--2----2--2--2----2--2--|--4----4--4--4----4--4--|--4----4--4--4----4--4--|
--4----4--4--4----4--4--|--5----5--5--5----5--5--|--5----5--5--5----5--5--|
--4----4--4--4----4--4--|--5----5--5--5----5--5--|--5----5--5--5----5--5--|
--2----2--2--2----2--2--|--3----3--3--3----3--3--|--3----3--3--3----3--3--|


                                                                           
--5----5--5--5----5--5--|--5----5--5--5----5--5--|--3----3--3--3----3--3--|
--5----5--5--5----5--5--|--5----5--5--5----5--5--|--3----3--3--3----3--3--|
--6----6--6--6----6--6--|--6----6--6--6----6--6--|--4----4--4--4----4--4--|
--7----7--7--7----7--7--|--7----7--7--7----7--7--|--5----5--5--5----5--5--|
--7----7--7--7----7--7--|--7----7--7--7----7--7--|--5----5--5--5----5--5--|
--5----5--5--5----5--5--|--5----5--5--5----5--5--|--3----3--3--3----3--3--|


                                                                           
--3----3--3--3----3--3--|--2----2--2--2----2--2--|--2----2--2--2----2--2--|
--3----3--3--3----3--3--|--3----3--3--3----3--3--|--3----3--3--3----3--3--|
--4----4--4--4----4--4--|--4----4--4--4----4--4--|--4----4--4--4----4--4--|
--5----5--5--5----5--5--|--4----4--4--4----4--4--|--4----4--4--4----4--4--|
--5----5--5--5----5--5--|--2----2--2--2----2--2--|--2----2--2--2----2--2--|
--3----3--3--3----3--3--|------------------------|------------------------|

Suggest correction
Give kudos to tab author, rate the tab!
1 2 3 4 5
comments
print report bad tab
guest
You may want to rate the tab now too:
select rating
Wanna post a correction for this tab? Suggest correction