Oops, an error
Loading. Please wait.

Conflict Tab

version 1
version 1

Solo

Whole song

921 views 1 this week
no commentswrite comment
1 2 3 4 5
please rate
add to favorites
launch autoscroll
font size
0
reset
how to read this tab
guitar tuner
Tab Pro tools
  • play this tab
  • loop segment
  • change instrument
  • show fretboard
  • metronome
×
Best way to learn
"Conflict"
Autoscroll
slow
fast
+/-
esc
set tempo
stop
Contributor
#----------------------------------PLEASE NOTE--------------------------------#
#This file is the author's own work and represents their interpretation of the#
#song. You may only use this file for private study, scholarship, or research.#
#-----------------------------------------------------------------------------#

-----------------------------------------------------------------
SONG Title:     "Conflict" (Guitar Solo)    
ARTIST/GROUP:   Mike Oldfield
TRANSCRIBED By: David Chaves(Costa Rica)
                (csdosage@hotmail.com)
                (http://csdosage.hi5.com)
-----------------------------------------------------------------

Tablature Notation:

h    = hammer-on
p    = pull-off
/    = slide up
\    = slide down
< >  = natural harmonic
ar   = artificial harmonic
~    = vibrato
pm--|= palm muting
b    = bending
r    = release

Questions, comments, complaints at csdosage@hotmail.com

(01:21-01:51)
e|----------------------------12-10-12-9-10--------|
B|----------------------10-12---------------12-12--|
G|---9-11-12-11-9-11-12----------------------------|
D|-9-----------------------------------------------|
A|-------------------------------------------------|
E|-------------------------------------------------|

e|----------------------------12-10-12-9-10--------|
B|----------------------10-12---------------12-12--|
G|---9-11-12-11-9-11-12----------------------------|
D|-9-----------------------------------------------|
A|-------------------------------------------------|
E|-------------------------------------------------|


e|----------14----15-17-15-14------------------------------------|
B|----17----------------------15---------------------------------|
G|-16----16----16----------------14--------------14-16-14--------|
D|-----------------------------------16----17-------------17-16--|
A|--------------------------------------17----17-----------------|
E|---------------------------------------------------------------|

e|-------------------------------------------14--------|
B|-------------------------------17-15----15----17-17--|
G|-------------------------14-16-------16--------------|
D|----14-16-17-16-14-16-17-----------------------------|
A|-17--------------------------------------------------|
E|-----------------------------------------------------|

e|----12-14-15-15-14-12--14--------|
B|-12-----------------------15-----|
G|-----------------------------14--|
D|---------------------------------|
A|---------------------------------|
E|---------------------------------|

e|----14-15-17-17-15-14--15--------|
B|-15-----------------------17-----|
G|-----------------------------16--|
D|---------------------------------|
A|---------------------------------|
E|---------------------------------|

e|----15-17-19-19-17-15--17-14-----|
B|-17--------------------------15--|
G|---------------------------------|
D|---------------------------------|
A|---------------------------------|
E|---------------------------------|

e|-14---------------------|
B|------------------------|
G|----14-12--11-12--------|
D|-----------------14-14--|
A|------------------------|
E|------------------------|

e|----12-14-15-15-14-12--14--------|
B|-12-----------------------15-----|
G|-----------------------------14--|
D|---------------------------------|
A|---------------------------------|
E|---------------------------------|

e|----14-15-17-17-15-14--15--------|
B|-15-----------------------17-----|
G|-----------------------------16--|
D|---------------------------------|
A|---------------------------------|
E|---------------------------------|

e|----15-17-19-19-17-15--17-14-----|
B|-17--------------------------15--|
G|---------------------------------|
D|---------------------------------|
A|---------------------------------|
E|---------------------------------|

e|-14------------------------|
B|---------------------------|
G|----14-12--11-12-11--------|
D|--------------------14-14--|
A|---------------------------|
E|---------------------------|

Tuanis Calilo.
comments
We did not receive enough feedback on this tab! Please rate:
print report bad tab
1 2 3 4 5
I want to post or [tab]
guest
You may want to rate the tab now too:
select rating
Please do not post tabs as comments. Select "correction" instead!