Oops, an error
Loading. Please wait.

Crime Of Passion Tab

940 views 21 this week
no commentswrite comment
1 2 3 4 5
excellent!
x 4
add to favorites
launch autoscroll
font size
0
reset
how to read this tab
guitar tuner
Tab Pro tools
  • play this tab
  • loop segment
  • change instrument
  • show fretboard
  • metronome
Autoscroll
slow
fast
+/-
esc
set tempo
stop
Contributor
Difficulty
intermediate
                                          Artist - Mike Oldfield
                                         ************************
                                         Song - Crime Of Passion
                                        *************************
                                              Album - Crises
                                             ****************
                                           Tabbed By - Ayreon77
                                          **********************



I noticed there was chords for this song, but no solo.
This is my attempt at the solo, its not 100%. there is a lot of diffrent guitars doing
alot.

         h p
[--s--7-7-9-7---|----------h-p----|-------------------|-----------------|
[-7\9---------9-|----s--7-7-9-7---|------------s------|-----------s-----|
[---------------|---6\8---------8-|--s-------9-\11-11-|--s-------6\8----|
[---------------|-9---------------|-9\8-6-6-----------|-8\6-----------9-|
[---------------|-----------------|-------------------|-----9-9---------|
[---------------|-----------------|-------------------|-----------------|
                    hold 
                    | | |
                    b | br                   rake
[-----------------7-9-9-9-7---|----------s--|-------7-6---|
[-----7-7-7-7-7-9-----------9-|---------5\7-|---7-7-----9-|
[-6-9-------------------------|------s------|--7----------|
[-----------------------------|-4-4-4\6-----|-7-----------|
[-----------------------------|-------------|-------------|
[-----------------------------|-------------|-------------|


                 h  p                      h  p                        h
[--br---s---19-19-21-19----|------s---14-14-16-14----|------------12-12-14-|
[-19--19\21-------------21-|-12-14\16-------------16-|-12-11---------------|
[--------------------------|-------------------------|-------1313----------|
[--------------------------|-------------------------|---------------------|
[--------------------------|-------------------------|---------------------|
[--------------------------|-------------------------|---------------------|

                                         hold 
                                         | | |
                                         b | br      br      s
[---s----------------|-----------------7-9-9-9-7---7-9-9-7-9-\-|
[-11\9---------s-----|-----7-7-7-7-7-9-----------9-------------|
[------11-11--6\8----|-6-9-------------------------------------|
[------------------9-|-----------------------------------------|
[--------------------|-----------------------------------------|
[--------------------|-----------------------------------------|

               b
[-------19-21-21-21-19-18----|
[-19-21-------------------21-|
[----------------------------|
[----------------------------|
[----------------------------|
[----------------------------|


 The above part of the Solo is from the single version of the song.

       This part below is for the extended version of the song.

03:10
[--------------------|----------------------|--------------------]
[-17-19--16-16-------|-17-19-17-16-16-------|-17-19--16-16-------]
[--------------18-16-|----------------18-16-|--------------18-16-]
[--------------------|----------------------|--------------------]
[--------------------|----------------------|--------------------]
[--------------------|----------------------|--------------------]

                      s
[--------------19-18-16\-]
[-17-19--19-19-----------]Repeat
[------------------------]  All
[------------------------]   Above
[------------------------]    Again 
[------------------------]



03:38        s
[----------14\16-14--14------s---------]
[-14-16-17--------------17-16\14-14----]
[-----------------------------------16-]
[--------------------------------------]
[--------------------------------------]
[--------------------------------------]

             s                  s        s
[----------14\16-14-------14--17\19-18-16\-]
[-14-16-17----------16-17------------------]
[------------------------------------------]
[------------------------------------------]
[------------------------------------------]
[------------------------------------------]

03:45        s
[----------14\16-14--14------s---------|----------------]
[-14-16-17--------------17-16\14-14----|-14-16-17-14-14-]
[-----------------------------------16-|----------------]
[--------------------------------------|----------------]
[--------------------------------------|----------------]
[--------------------------------------|----------------]

          h  p  h  p                        
[---h---19-21-19-21-19-18-16-]Repeat
[-19-21----------------------] All From 03:38
[----------------------------]    And
[----------------------------]      Fade Out
[----------------------------]
[----------------------------]



ENJOY............
comments
print report bad tab
I want to post or [tab]
guest
You may want to rate the tab now too:
select rating
Please do not post tabs as comments. Select "correction" instead!