Oops, an error
Loading. Please wait.

Crystal Clear Tab

1,922 views 6 this week
no commentswrite comment
1 2 3 4 5
please rate
add to favorites
launch autoscroll
font size
0
reset
how to read this tab
guitar tuner
Autoscroll
slow
fast
+/-
esc
set tempo
stop
Help us to improve Ultimate-Guitar.com Take our survey!
×
Contributor
Mike Oldfield - Crystal Clear

E|-----------------------------------------------------------------------------------|
B|------------13---12b13r12----------------------------------------------------------|
G|--------------------------14--12--------12--------12-14---14b16r14--12-------------|
D|----------------------------------12h14--------14-----------------------14--\12/14-|
A|-----------------------------------------------------------------------------------|
E|-----------------------------------------------------------------------------------|

E|--------------------------------------------------------------------------------------|
B|-------12-13--12h13p12----------------------------------------------------------------|
G|----14-----------------14--12---------12-------12-14---14b16r14--12-------------------|
D|-14-----------------------------12h14-------14-----------------------14--\12/14----14-|
A|--------------------------------------------------------------------------------------|
E|--------------------------------------------------------------------------------------|

E|-------------------------9------------------------------------9----------|
B|---------10-10-----10-10---10--10-------------10-10-----10-10---10--10---|
G|-------9-------9-9----------------9---------9-------9-9----------------9-|
D|-------------------------------------------------------------------------|
A|-------------------------------------------------------------------------|
E|-------------------------------------------------------------------------|

E|--------------------------------------------------------------------------|
B|-----------/13---12b13r12-------------------------------------------------|
G|--------------------------14--12--------12--------12-14--14h16-14--12-----|
D|---------14-----------------------12h14--------14----------------------14-|
A|--------------------------------------------------------------------------|
E|--------------------------------------------------------------------------|

E|-----------------------------------------------------------------------------------------|
B|-------12-13---12b13r12------------------------------------------------------------------|
G|----14------------------14--12--------12---------12-14---14h16-14--12--------------------|
D|-14-----------------------------12h14--------/14-----------------------14----12h14-12h14-|
A|-----------------------------------------------------------------------------------------|
E|-----------------------------------------------------------------------------------------|

E|-------------------------9---------------------------------------9----------|
B|---------10-10-----10-10---10--10----------------10-10-----10-10---10--10---|
G|-------9-------9-9----------------9---------7=/9-------9-9----------------9-|
D|----------------------------------------------------------------------------|
A|----------------------------------------------------------------------------|
E|----------------------------------------------------------------------------|

E|----------------------9----------|
B|------10-10-----10-10---10--10---|
G|-7=/9-------9-9----------------9-|
D|---------------------------------|
A|---------------------------------|
E|---------------------------------|

E|-------------------------------------------------------------------|
B|---/13---12b13r12--------------------------------------------------|
G|-------------------14--12--------12--------12-14--14h16-14--12-----|
D|-14------------------------12h14--------14----------------------14-|
A|-------------------------------------------------------------------|
E|-------------------------------------------------------------------|

E|----------------------------------------------------------------------------------------|
B|-------12-13---12b13r12-----------------------------------------------------------------|
G|----14------------------14--12--------12---------12-14---14h16-14--12-------------------|
D|-14-----------------------------12h14--------/14-----------------------14---12h14-12h14-|
A|----------------------------------------------------------------------------------------|
E|----------------------------------------------------------------------------------------|
comments
We did not receive enough feedback on this tab! Please rate:
print report bad tab
1 2 3 4 5
I want to post or [tab]
guest
You may want to rate the tab now too:
select rating
Please do not post tabs as comments. Select "correction" instead!