Oops, an error
Loading. Please wait.

Dark Star Tab

2,599 views 3 this week
no commentswrite comment
1 2 3 4 5
3 more votes to show rating
add to favorites
launch autoscroll
font size
0
reset
how to read this tab
guitar tuner
Autoscroll
slow
fast
+/-
esc
set tempo
stop
Help us to improve Ultimate-Guitar.com Take our survey!
×
Author
Song:Dark Star.
Album: Tubular Bells II.
Author Mike Oldfield.

Moisés Ferrer Serra
oldfield@byaku.net
http://oldfield.byaku.net



Tab notation

s  --> slide
h  --> hammer on
p  --> pull off
b  --> bend
r  --> release bend




     Electric guitar starts (0:13)
E|---5-5-5-5---------------------7-7-7-7-----------------------------|
B|---5-5-5-5-------5-------------7-7-7-7-----------------------------|
G|---5-5-5-5---5h7---7p5-----5h7-8-8-8-8-------9h12p9----------------|
D|---7-7-7-7-7-----------5h7-----9-9-9-9-10h12--------12-10h12-------|
A|-------------------------------------------------------------------|
E|-------------------------------------------------------------------|

E|-----------------------------------------10----10-12-15------------|
B|-----------------------------10----10h12----12-------------10h12---|
G|---9h12p9----------9h12p9h12----12----------------------12---------|
D|----------12-10h12-------------------------------------------------|
A|-------------------------------------------------------------------|
E|-------------------------------------------------------------------|

E|---12-------5-5-5-5---------------------7-7-7-7--------------------|
B|------10h12-5-5-5-5-------5-------------7-7-7-7---------12-11-10---|
G|------------5-5-5-5---5h7---7p5-----5h7-8-8-8-8----9h11------------|
D|------------7-7-7-7-7-----------5h7-----9-9-9-9-13-----------------|
A|-------------------------------------------------------------------|
E|-------------------------------------------------------------------|

E|-------------------------------------------------------------------|
B|---------------------------------------------------10----10h12-----|
G|---------9h12p9----------9h12p9----------9h12p9h12----12-----------|
D|---10h12--------12-10h12--------12-10h12---------------------------|
A|-------------------------------------------------------------------|
E|-------------------------------------------------------------------|

E|---10----10-12-15----------10----------------------15-17b19-----|
B|------12-------------10h12----10h12----------15-17--------------|
G|------------------12----------------16p14-16--------------------|
D|----------------------------------------------------------------|
A|----------------------------------------------------------------|
E|----------------------------------------------------------------|


    Electric Guitar continues (0:42)
E|-------------------------------------------------------------------|
B|-----------9-------------------------16-15-14----------------------|
G|------9h11---11p9------9h11----13h15----------------13h16p13-------|
D|---11-------------9h11------17----------------14h16----------16----|
A|-------------------------------------------------------------------|
E|-------------------------------------------------------------------|

E|----------------------------------------------------14----14-16----|
B|----------------------------------------14----14h16----16----------|
G|----------13h16p13----------13h16p13h16----16----------------------|
D|----14h16----------16-14h16----------------------------------------|
A|-------------------------------------------------------------------|
E|-------------------------------------------------------------------|

E|---19----------14----------------------19-21b23--------------------|
B|---------14h16----14h16----------19-21----------11-9h11p9----------|
G|------16----------------20p18-20--------------------------11-------|
D|-------------------------------------------------------------11----|
A|-------------------------------------------------------------------|
E|-------------------------------------------------------------------|

E|-------------------------------------------------------------------|
B|----------------------------------------------------------17-16----|
G|---8-8-------------------15-------14----15-------14h15h16----------|
D|-------------11h13-13h15----13h15----15----15p13-------------------|
A|-------11h12-------------------------------------------------------|
E|-------------------------------------------------------------------|

E|-------------------------------------------------------------------|
B|---15-------14h16p14----------14h16p14-------14h16-------13h14-----|
G|------15h17----------17-15h17----------15h17-------14h15-----------|
D|-------------------------------------------------------------------|
A|-------------------------------------------------------------------|
E|-------------------------------------------------------------------|

E|---------------------13h14h15h16-17-18----16h17p16h17p16----17-----|
B|------16----15h16h17-------------------18----------------18--------|
G|---15----16--------------------------------------------------------|
D|-------------------------------------------------------------------|
A|-------------------------------------------------------------------|
E|-------------------------------------------------------------------|

E|------21b23r21-----|
B|---18--------------|
G|-------------------|
D|-------------------|
A|-------------------|
E|-------------------|


     Electric Guitar: Repeat twice (1:15)/(1:28)
E|---------------11-------------------------------------------------|
B|------------11-------------------11------------11-14--------------|
G|------11h13-------------10-11-13-------11-13-------13----11-------|
D|---13-------------11s13-------------11----------------10----10----|
A|------------------------------------------------------------------|
E|------------------------------------------------------------------|

E|----------------------------------------|
B|----------------------------------------|
G|---10h11----10----11----10----13s15-----|
D|---------13----------13-----------------|
A|---------------13----------13-----------|
E|----------------------------------------|



     Spanish Guitar (1:35)        (1:41)
E|----------------------------------------|
B|---------11-13-11----------11-13-11-----|
G|---10-13-------------12-13--------------|
D|------------------13--------------------|
A|----------------------------------------|
E|----------------------------------------|

     Electric Guitar (1:41)
E|-------------|
B|-------------|
G|-------------|
D|---10h13-----|
A|-------------|
E|-------------|



     Electric Guitar (1:42)
E|---------------13-------------------------------------------------|
B|------------13-------------------13----------13-16----------------|
G|------13h15-------------12-13-15-------13-15-------15----13-------|
D|---15-------------13s15-------------13----------------12----12----|
A|------------------------------------------------------------------|
E|------------------------------------------------------------------|

E|----------------------------------------|
B|----------------------------------------|
G|---12h13----12----13----12----15s17-----|
D|---------15----------15-----------------|
A|---------------15----------15-----------|
E|----------------------------------------|


     Spanish Guitar (1:49)
E|-------------------------------------------|
B|---------13-15-13----------10-12-13-12-----|
G|---12-15-------------14-15-----------------|
D|------------------15-----------------------|
A|-------------------------------------------|
E|-------------------------------------------|



     Electric Guitar (1:55)
E|---------------11-------------------------------------------------|
B|------------11-------------------------------11-14----------------|
G|------11h13-------------10-11-13h15----11-13-------13----11-------|
D|---13-------------11s13-------------11----------------10----10----|
A|------------------------------------------------------------------|
E|------------------------------------------------------------------|

E|----------------------------------------|
B|----------------------------------------|
G|---10-11----10----11----10----13s15-----|
D|---------13----------13-----------------|
A|---------------13----------13-----------|
E|----------------------------------------|
Suggest correction
Give kudos to tab author, rate the tab!
1 2 3 4 5
comments
print report bad tab
guest
You may want to rate the tab now too:
select rating
Wanna post a correction for this tab? Suggest correction