Oops, an error
Loading. Please wait.

Etude Tab

1,286 views 6 this week
no commentswrite comment
1 2 3 4 5
excellent!
x 4
add to favorites
launch autoscroll
font size
0
reset
how to read this tab
guitar tuner
Autoscroll
slow
fast
+/-
esc
set tempo
stop
Help us to improve Ultimate-Guitar.com Take our survey!
×
Author
Difficulty
novice
BAND - MIKE OLDFIELD
SONG - ETUDE
FROM - THE KILLING FIELDS

 02:22                         s        s
[----s---12--10-9--10-12--|--5-\-14--14-\-22--14-14-12--]
[--5-\--------------------|-----------------------------]
[-------------------------|-----------------------------]
[-------------------------|-----------------------------]
[-------------------------|-----------------------------]
[-------------------------|-----------------------------]

     s             s
[--9-\-17----16--14\11-14-12--|--10--9--7-7-5--]
[-----------------------------|----------------]
[-----------------------------|----------------]  X2
[-----------------------------|----------------]
[-----------------------------|----------------]
[-----------------------------|----------------]

                  
 03:44            Guitar 1          
[--5--7-8-10-12--|----s--12--12-10-9-7-5--]
[----------------|--5-\-------------------]
[----------------|------------------------]
[----------------|------------------------]
[----------------|------------------------]
[----------------|------------------------]
                 |Guitar 2                |
                 |     s                  |
                 [--12-\-24--22-21-19-17--]
                 [------------------------]
                 [------------------------]
                 [------------------------]
                 [------------------------]
                 [------------------------]


Guitar 1
[----s-5--7--8--10--12--|----s-12--12-10-9-7-5---]
[--5-\------------------|--5-\-------------------]
[-----------------------|------------------------]
[-----------------------|------------------------]
[-----------------------|------------------------]
[-----------------------|------------------------]
|Guitar 2                                        |
|     s                       s                  |
[--12-\-17-19-20-22-24--|--12-\-24--22-21-19-17--]
[-----------------------|------------------------]
[-----------------------|------------------------]
[-----------------------|------------------------]
[-----------------------|------------------------]
[-----------------------|------------------------]
Suggest correction
comments
print report bad tab
guest
You may want to rate the tab now too:
select rating
Please do not post tabs as comments. Select "correction" instead!