Oops, an error
Loading. Please wait.

I Got Rhythm Chords

6,109 views 18 this week
no commentswrite comment
1 2 3 4 5
excellent!
x 5
add to favorites
launch autoscroll
font size
0
reset
transpose
0
reset
simplify chords
display chords
guitar tuner
Autoscroll
slow
fast
+/-
esc
set tempo
stop
Help us to improve Ultimate-Guitar.com Take our survey!
×
Author
Difficulty
novice
---------------------------------------------------------------------------
                I Got Rhythm - Mike Oldfield
---------------------------------------------------------------------------
Tabbed by: maguri
Tuning: Standard

Mike Oldfield
I Got Rhythm (1979)
(George and Ira Gershwin)

From: "Platinum"

---------------------------------------------------------------------------
CHORDS

          E-A-D-G-B-E
Asus2     x-0-2-2-0-0

---------------------------------------------------------------------------


INTRO
| E | C#m | D | E |
| E | C#m | D | E |

E      C#m
 I got sunshine,
D      E
 I got blue sky
E      C#m
 I got my guy,
          D                E
Who could ask for anything more?

A        F#m
 Old man trouble,
G        A
 I don't mind him
A          F#m
 You won't find him
G                 A
Hangin' 'round my door

E      C#m
 I got rhythm,
D      E
 I got music
E      C#m
 I got my guy,
          D                E
Who could ask for anything more?

| E | C#m | D | E |
| E | C#m | D | E |
| A | F#m | G | A |
| A | F#m | G | A |

| A | % | E | % |
| A | % | E | % |
| Asus2| % | E | % |
| Asus2| % | E | % |

A
 I got rhythm,
E
 I got music
A
 I got my guy,
          E
Who could ask for anything more?

A
 I got sunshine,
E
 I got blue sky
A
 I got my guy,
          E
Who could ask for anything more?

A
 I got starlight,
E
 I got sweet dreams
A
 I got my guy,
          E
Who could ask for anything more?

| E | % | % | % |
| E | % | % | % |

D
 Old man trouble,
A
 I don't mind him
D
 You won't find him
A 
 Hangin' 'round my door

D
 I got rhythm,
A
 I got music
D
 I got my guy,
          A
Who could ask for anything more?

| D | % | A | % |
| D | % | A | % |
| D | % | A | % |
(repeat and fade)


---------------------------------------------------------------------------

Thanks to ayreon77, who sent in this tab of the solo for addition!


02:31
e|----------|
B|-9-9--7-7-|
G|----------|
D|----------|
A|----------|
E|----------|



02:46
Guitar 1
e|----------|
B|-9-9--7-7-|
G|----------|
D|----------|
A|----------|
E|----------|
 |
 |Guitar 2 s         p                       p
e|--------7\-19-19-17-16---p------|----19--17-16-|-24--19-|
B|-----------------------19-17-17-|--------------|--------|
G|--------------------------------|-16-----------|--------|
D|--------------------------------|--------------|--------|
A|--------------------------------|--------------|--------|
E|--------------------------------|--------------|--------|

03:04
    s         p
e|-7\-19-19-17-16----|-19-17-16-------------------------------------|
B|----------------17-|----------19-17-16-14-------------------------|
G|-------------------|----------------------16-14-13----------------|
D|-------------------|-------------------------------16-14-13-------|
A|-------------------|----------------------------------------16-14-|
E|-------------------|----------------------------------------------|


e|-----------------------------------------------------------|
B|-------------------------------------------h--h-----h--h---|
G|-----------------------h--h------h--h----13-14-15-16-17-18-|
D|---h--h------h--h----12-13-14--15-16-17--------------------|
A|-12-14-16--14-15-16----------------------------------------|
E|-----------------------------------------------------------|

                        h  h                        b    b       b
e|---h--h-----h--h----16-17-18--19-20-21--22-23-24-24-|-24-24-|-24-22-|
B|-15-16-17-18-19-20----------------------------------|-------|-------|
G|----------------------------------------------------|-------|-------|
D|----------------------------------------------------|-------|-------|
A|----------------------------------------------------|-------|-------|
E|----------------------------------------------------|-------|-------|

     h                h     s      s       h
e|-21-22-21-|-21-21-19-21-19\17-17-\15-|-17-19-17-----h--s---|
B|----------|--------------------------|------------17-19\15-|
G|----------|--------------------------|---------------------|
D|----------|--------------------------|---------------------|
A|----------|--------------------------|---------------------|
E|----------|--------------------------|---------------------|


e|---h-----------h------|---------h-----s-----s-----------s----|
B|-14-15-14-14-12-14-12-|-14-14-12-14-12\10-10\7~~~~~~~~~~\5-5-|
G|----------------------|--------------------------------------|
D|----------------------|--------------------------------------|
A|----------------------|--------------------------------------|
E|----------------------|--------------------------------------|
Suggest correction
comments
print report bad tab
guest
You may want to rate the tab now too:
select rating
Please do not post tabs as comments. Select "correction" instead!