Oops, an error
Loading. Please wait.

In Dulci Jubilo Bass Tab

version 1
version 1

Whole song

Interactive

960 views 1 this week
no commentswrite comment
1 2 3 4 5
please rate
add to favorites
launch autoscroll
font size
0
reset
guitar tuner
Tab Pro tools
  • play this tab
  • loop segment
  • change instrument
  • show fretboard
  • metronome
×
Best way to learn
"In Dulci Jubilo"
Autoscroll
slow
fast
+/-
esc
set tempo
stop
Contributor
-----------------------------------------------------------------------------
                      IN DULCI JUBILO - Mike Oldfield
-----------------------------------------------------------------------------
Tabbed by: Shed1873
E-mail: jamie.beadle@talktalk.net

Tuning: Standard

Intro
G|--------|--------|
D|--------|--------|
A|-3-3-3-3|-3-3-3-3|
E|--------|--------|


Main riff
G|---------|---------|-----2-0|---0----|
D|---------|---------|---2----|-0------|
A|-3-3-3--3|-3-3-3--3|-3------|-----3-3|
E|-------3-|-------3-|--------|--------|

G|-----5-2|---0----|---0---2|---0-----|
D|---2----|-0------|-0------|-0-------|
A|-3------|-----3-3|-----3--|-----3---|
E|--------|--------|--------|---------|

Play intro then repeat main riff through to end.  That's all there is to it.



| /  slide up
| \  slide down
| h  hammer-on
| p  pull-off
| ~  vibrato
| +  harmonic
| x  Mute note
=============================================================================
comments
We did not receive enough feedback on this tab! Please rate:
print report bad tab
1 2 3 4 5
I want to post or [tab]
guest
You may want to rate the tab now too:
select rating
Please do not post tabs as comments. Select "correction" instead!