Oops, an error
Loading. Please wait.

Jewel In The Crown Tab

442 views 3 this week
no commentswrite comment
1 2 3 4 5
excellent!
x 2
add to favorites
launch autoscroll
font size
0
reset
how to read this tab
guitar tuner
Tab Pro tools
  • play this tab
  • loop segment
  • change instrument
  • show fretboard
  • metronome
Autoscroll
slow
fast
+/-
esc
set tempo
stop
Contributor
Difficulty
novice
                                          Artist - Mike Oldfield
                                         ************************
                                        Song - Jewel In The Crown
                                       ***************************
                                        Album - Tubular Bells III
                                       ***************************
                                           Tabbed By - Ayreon77
                                          **********************


INTRO - Drums
******

CHORDS - play all the way throughout the song.
******* 
Cm Gm Fm Cm

-------------------------------------------------------------
This First part is done on a keyboard,
If you don't have a keyboard, I figured it out for guitar

SECTION 1
00:22
[-------------|---------------|---------------------|-------------]
[-------------|---------------|--s-----p------h--p--|-------------]
[---------h---|---h--p--s-----|-8\10-10-8----8-10-8-|---------h---]
[--s---8-8-10-|-10-12-10\8----|-----------10--------|--h---8-8-10-]
[-8\10--------|------------10-|---------------------|-8-10--------]
[-------------|---------------|---------------------|-------------]


[------------|---s------s-----------|------------h---|---h--p--s------]
[------------|-11\13--13\11---------|---s---11-11-13-|-13-15-13\11----]
[---h--------|--------------12-10-8-|-10\12----------|-------------12-]
[-10-12-8----|----------------------|----------------|----------------]
[---------10-|----------------------|----------------|----------------]
[------------|----------------------|----------------|----------------]


[-------------|---------------------|-------------|--------------------]
[---s---11----|---h--p--s-------s---|-------------|--------------------]
[-10\12----10-|-10-12-10\8-10-10\12-|---------h---|---p--s-------------]
[-------------|---------------------|--s---8-8-10-|-12-10\8-10-12-8----]
[-------------|---------------------|-8\10--------|-----------------10-]
[-------------|---------------------|-------------|--------------------]


[----------|-----------]
[----------|-----------]
[----------|-----------]
[--s---8---|--p--------]
[-8\10---8-|-8-6-------]
[----------|-----8-6-8-]


-------------------------------------------------------------
Acoustic or Classical guitar? im not sure.
01:09
[-------------------------|-----------|-----------]
[-------------------------|-----------|-----------]
[--------p--s-h--s--------|-----------|-----------]
[-10---12-10\8-10\12-8----|--h---8-br-|--p--------]
[----------------------10-|-8-10---8--|-8-6--p----]
[-------------------------|-----------|-----8-6-8-]


-------------------------------------------------------------
play SECTION 1 with the other 2 guitars below. its not lined up but i recon
your can work it out.
01:31
 Guitar 1
[-------------h---|--br------|--b--rbp------13----|-------------h----------]
[---s----11-11-13-|-13-11----|-16--16-13-16----16-|---s----11-11-13--------]
[-10\12-----------|-------12-|--------------------|-10\12------------------]
[-----------------|----------|--------------------|------------------------]
[-----------------|----------|--------------------|------------------------]
[-----------------|----------|--------------------|------------------------]
|                                                                          |
|Guitar 2                                                                  |
[-----------------s-------------s-------------s----------s---------------s-]
[-------4-4-4-4-4-\-16-16-16-16-\-15-15-15-15-\-11-11-11-\13-13-13-13-13-\-]
[--------------------------------------------------------------------------]
[--------------------------------------------------------------------------]
[--------------------------------------------------------------------------]
[--------------------------------------------------------------------------]


 Guitar 1     b   br                             br
[--br------|-18--18-15-------|---s---18-18-20-|-20-18----|---h---18--------]
[-13-11----|-----------18-16-|-18\20----------|-------20-|-18-20----18-----]
[-------12-|-----------------|----------------|----------|-----------------]
[----------|-----------------|----------------|----------|-----------------]
[----------|-----------------|----------------|----------|-----------------]
[----------|-----------------|----------------|----------|-----------------]
|                                                                          |
|Guitar 2                                                                  |
[---------s-----------s--------------s------------s-----------s----------s-]
[9-9-9-9-\8-8-8-8-8 \4-4-4-4-4-4-4-4-\16-16-16-16-\15-15-15-15-\11-11-11-\-]
[--------------------------------------------------------------------------]
[--------------------------------------------------------------------------]
[--------------------------------------------------------------------------]
[--------------------------------------------------------------------------]

02:03
 Guitar 1
[---h--p--s-------b-|-----------h---|-b-------|------------|---------------]
[-18-20-18\16-18-18-|--s---11-11-13-|13-11----|--s---11----|---------------]
[-------------------|10\12----------|------12-|10\12----10-|--p------------]
[-------------------|---------------|---------|------------|15-13----------]
[-------------------|---------------|---------|------------|------15-13-15-]
[-------------------|---------------|---------|------------|---------------]
|                                                                          |
|Guitar 2                                                                  |
[---------------s-------------------s--------------------------------------]
[13-13-13-13-13-\9-9-9-9-\8-8-8-8-8 \4-4-4-4-4-4-4-4- ECT......------------]
[--------------------------------------------------------------------------]
[--------------------------------------------------------------------------]
[--------------------------------------------------------------------------]
[--------------------------------------------------------------------------]


-------------------------------------------------------------
SECTION 3
**********
02:53
kind of rake
[-----------------------|------------h--p------|---------s---------]
[-----13-13-13-11-13----|-13-13-13-11-13-11----|-13-11-13\15-16-15-]
[---12---------------12-|-------------------12-|-------------------]
[-12--------------------|----------------------|-------------------]
[-----------------------|----------------------|-------------------]
[-----------------------|----------------------|-------------------]


[----------------|--------------------s---------]
[-13-13-13-11----|-11--11----11----11-\13-13-13-]
[-------------12-|--------13----13--------------]
[----------------|------------------------------]
[----------------|------------------------------]
[----------------|------------------------------]

-------------------------------------------------------------
WORDS                        
******                     
Muskhil Badi Tu hai Kaha             
Muskhil Badi Tu hai Kaha
 
[---------s---------|----------------------]
[-13-11-13\15-16-15-|-13-13-13-11-13-11----]          
[-------------------|-------------------12-]
[-------------------|----------------------]
[-------------------|----------------------]
[-------------------|----------------------]                           
                             
-------------------------------------------------------------
kind of rake
[-----------------------|------------h--p------|---------s---------]
[-----13-13-13-11-13----|-13-13-13-11-13-11----|-13-11-13\15-16-15-]
[---12---------------12-|-------------------12-|-------------------]
[-12--------------------|----------------------|-------------------]
[-----------------------|----------------------|-------------------]
[-----------------------|----------------------|-------------------]


[----------------|--------------------s---------]
[-13-13-13-11----|-11--11----11----11-\13-13-13-]
[-------------12-|--------13----13--------------]
[----------------|------------------------------]
[----------------|------------------------------]
[----------------|------------------------------]

-------------------------------------------------------------
04:19
Play SECTION 3 with The words
WORDS                        
******                     
Muskhil Badi Tu hai Kaha             
Muskhil Badi Tu hai Kaha
-------------------------------------------------------------

bassy notes GUITAR? BASS? KEYBOARD?
04:48
[-------------|-------------|--------------------------|------------------]
[-------------|-------------|--------------------------|------------------]
[-------------|-------------|--------------------------|------------------]
[--------s----|----s-s------|------s---s---------------|-------------s----]
[-3-3-3-1\3---|-3-3\5/3-1---|-3-1-3\5-5\6-5--3-3-3-1---|-1-1---1---1-\3-3-]
[-----------3-|-----------3-|------------------------3-|-----3---3--------]



Enjoy..............
comments
We did not receive enough feedback on this tab! Please rate:
print report bad tab
1 2 3 4 5
I want to post or [tab]
guest
You may want to rate the tab now too:
select rating
Please do not post tabs as comments. Select "correction" instead!