Oops, an error
Loading. Please wait.

Man In The Rain Bass Tab

version 1
version 1

Whole song

Interactive

559 views 1 this week
no commentswrite comment
1 2 3 4 5
please rate
add to favorites
launch autoscroll
font size
0
reset
guitar tuner
Tab Pro tools
  • play this tab
  • loop segment
  • change instrument
  • show fretboard
  • metronome
Autoscroll
slow
fast
+/-
esc
set tempo
stop
Contributor
Difficulty
novice
Man In The Rain
Written and performed by Mike Oldfield with Cara Dillion on Vocals
Taken from Tubular Bells III released as a single in 1998
Bassist: Mike Oldfield.  Tabbed by bass50611.
Any comments e-mail bass254@btinternet.com

Intro:
G|----------------|
D|---NO BASS------|
A|-----ON INTRO---|
E|----------------|

Verse:
G|--------------------------------------------------------|
D|--------------------------------------------------------|
A|---4-44---2-22------4-4---2-2---4-44---2-22------4-44---|
E|---------------4-44-------------------------4-44--------|

Chorus:             (Play This x2)
G|-------------------------------|
D|-------------------------------|
A|---7-77--------4-4-------------|
E|---------7-77-----5-5---7-77---|

Repeat Verse & Chorus:

Bridge:
G|-----------------------------------------------------|
D|-----------------------------------------------------|
A|---------------7-77---7-77-------------7-77---7-77---|
E|---7-77---7-77-------------7-77---7-77---------------|

And thats basically it; the song just goes round and round.
Guitar solos are over the verse and chorus tab.
Pleasant song to play along to, quite easy really.
comments
We did not receive enough feedback on this tab! Please rate:
print report bad tab
1 2 3 4 5
I want to post or [tab]
guest
You may want to rate the tab now too:
select rating
Please do not post tabs as comments. Select "correction" instead!