Oops, an error
Loading. Please wait.

Moonlight Shadow Tab

version 2
version 2

Whole song

16,397 views 30 this week
no commentswrite comment
1 2 3 4 5
excellent!
x 3
add to favorites
launch autoscroll
font size
0
reset
how to read this tab
guitar tuner
Tab Pro tools
  • play this tab
  • loop segment
  • change instrument
  • show fretboard
  • metronome
×
Best way to learn
"Moonlight Shadow"
Autoscroll
slow
fast
+/-
esc
set tempo
stop
Contributor
-------------------------------------------------------------------------------
                             Moonlight Shadow - Mike Oldfield
-------------------------------------------------------------------------------


Tabbed by: T3NNu
Email: t3nnu@luukku.com

Tuning:

e|---------------------------------------------------------------------------|
B|-------------------------------------------------------1-2--2-2-4-2-1------|
G|-----------------------------------------------------3---------------------|
D|---------------------------------------------------------------------------|
A|---------------------------------------------------------------------------|
E|---------------------------------------------------------------------------|
                                                    The_ last that e-ver she

e|------------------------------1---1----------------------------------------|
B|------------1-1-2-4-(4)--2-4---------4-------2--2--2-4-2-1-----------------|
G|--3----3-------------------------------1(1)1-----------------3--3----------|
D|---------------------------------------------------------------------------|
A|---------------------------------------------------------------------------|
E|---------------------------------------------------------------------------|
  saw him Carried away by a moonlight shadow He passed on worried and warning

e|--------------------1----1-----------1(1)1-4--2---1--1--------1------------|
B|--1-1-2-4(4)---2-4-----------4-------------------------2-4-4----4(4)-------|
G|-------------------------------1-------------------------------------------|
D|---------------------------------------------------------------------------|
A|---------------------------------------------------------------------------|
E|---------------------------------------------------------------------------|
 Carried away by a moonlight shadow. Lost in a river last raturday night

e|--1----------------------1------------1----1-4-2-1-1-----------------------|
B|-------4-2----2------4-4---4(4)---2-4----------------2----4-1-----------1--|
G|----------------3---------------------------------------------3-1-1---3----|
D|---------------------------------------------------------------------------|
A|---------------------------------------------------------------------------|
E|---------------------------------------------------------------------------|
 Far away on the other side He was caught in the middle of a desperate fight and she

e|---------------------------------------------------------------------------|
B|--2-2----1-------1----2----4--------1--2-----2----2--4----2-1--------------|
G|--------------3-------------------3--------------------------------3-3-----|
D|---------------------------------------------------------------------------|
A|---------------------------------------------------------------------------|
E|---------------------------------------------------------------------------|
 couldn't find how to push through  The trees that whisper in the evening

e|--------------------1---1--------------------------------------------------|
B|-1-1----2-4(4)-2-4---------4-------------2---2---2--4---2-1----------------|
G|------------------------------1--1-1---------------------------3--3--------|
D|---------------------------------------------------------------------------|
A|---------------------------------------------------------------------------|
E|---------------------------------------------------------------------------|
 Carried away by a moonlight shadow Sing a song of sorrow and grieving

e|--------------------1----1-----------1(1)1-4--2---1--1--------1------------|
B|--1-1-2-4(4)---2-4-----------4-------------------------2-4-4----4(4)-------|
G|-------------------------------1-------------------------------------------|
D|---------------------------------------------------------------------------|
A|---------------------------------------------------------------------------|
E|---------------------------------------------------------------------------|
 Carried away by a moonlight shadow  All she saw was a silhouette of a gun

e|--1-----------------1--------------1(1)-4---2-1-1--------------------------|
B|----4-2--2------4-4---4(4)---2-4------------------2----4-1---------------1-|
G|------------3-------------------------------------------------3-1-1----3---|
D|---------------------------------------------------------------------------|
A|---------------------------------------------------------------------------|
E|---------------------------------------------------------------------------|
 Far away on the other side. He was shot six times by a man on the run And she

e|----------------------------------1----------1---------------1---4--2-1----|
B|--2-2-1----------1----2-----4-------4----------4-------2--4----------------|
G|--------------3------------------------------------------------------------|
D|---------------------------------------------------------------------------|
A|---------------------------------------------------------------------------|
E|---------------------------------------------------------------------------|
 couldn't find how to push through I stay     I pray     I see you in heaven



e|-----1--------------1---------1--------------1-----4-2-1------1------------|
B|--4----4(4)-----------4---------4-------2-4---------------------4----------|
G|---------------------------------------------------------------------------|
D|---------------------------------------------------------------------------|
A|---------------------------------------------------------------------------|
E|---------------------------------------------------------------------------|
   far away        I stay    I pray      I see you in heaven one day

e|--------------------------------------------------1---1--------------------|
B|--2----2----2-4-2-1------------1-1-2-4(4)----2-4----------4----------------|
G|----------------------3---3---------------------------------1-1(1)---------|
D|---------------------------------------------------------------------------|
A|---------------------------------------------------------------------------|
E|---------------------------------------------------------------------------|
   Four AM in the morning Carried away by a moonlight shadow I

e|--------------------------------------------------1---1--------------------|
B|--2----2----2-4-2-1------------1-1-2-4(4)----2-4----------4----------------|
G|----------------------3---3---------------------------------1--------------|
D|---------------------------------------------------------------------------|
A|---------------------------------------------------------------------------|
E|---------------------------------------------------------------------------|
   watched your vision forming Carried away by a moonlight shadow

e|---1(1)1-4--2---1--1--------1----------1----------------------1------------| 
B|---------------------2-4-4----4(4)----------4-2----2------4-4---4(4)---2-4-|
G|----------------------------------------------------3----------------------|
D|---------------------------------------------------------------------------|
A|---------------------------------------------------------------------------|
E|---------------------------------------------------------------------------|
  Star was light in a silvery night Far away on the other side      Will you

e|--1----1-4-2-1--------------------------------------------------------1----|
B|----------------2---4-1----------1-----2-2-----1--------1--2-----4-------4-|
G|------------------------3-1-1--3--------------------3----------------------|
D|---------------------------------------------------------------------------| 
A|---------------------------------------------------------------------------| 
E|---------------------------------------------------------------------------|
 come to talk to me this night But she couldn't find how to push through I stay

e|--1------------------1--4-2-1-------------4----1----------------1----------|
B|----4-------2-2-4--------------------------------4-4-------------4---------|
G|---------------------------------------------------------------------------|
D|---------------------------------------------------------------------------|
A|---------------------------------------------------------------------------|
E|---------------------------------------------------------------------------|
  I pray    I see you in heaven              far away           I stay

e|--1---------------1-----4-2-1---------1------------------------------------|
B|------4-----2--4------------------------4----------------------------------|
G|---------------------------------------------------------------------------|
D|---------------------------------------------------------------------------|
A|---------------------------------------------------------------------------|
E|---------------------------------------------------------------------------|
  I pray     I see you  in heaven     one day





e|--1-------------------1----------------------------------------------------|
B|-------4-2---2----4-4---4-4------------------------------------------------|
G|---------------3-----------------------------------------------------------|
D|---------------------------------------------------------------------------|
A|---------------------------------------------------------------------------|
E|---------------------------------------------------------------------------|
    Far away on the other side.

e|--------------------------------------1--1---------------------------------|
B|---------------------1-1-2-4-4---2-4----------4----------------------------|
G|------------------------------------------------1--------------------------|
D|---------------------------------------------------------------------------|
A|---------------------------------------------------------------------------|
E|---------------------------------------------------------------------------|
                  Caught in the middle of a hundred and five

e|---------------------------------------------------------------------------|
B|------------------------1-2---2---2-4-2-1---------1-1-2-4-4---2-4----------|
G|------------------------------------------3---3----------------------------|
D|---------------------------------------------------------------------------|
A|---------------------------------------------------------------------------|
E|---------------------------------------------------------------------------|
                        The last that ever she saw him Carried away by a

e|--1--1---------------------------------------------------------------------|
B|--------4--------------2----2----2-4-2-1----------------1-1-2-4-4----2-4---|
G|----------1----------1--------------------3-3------------------------------|
D|---------------------------------------------------------------------------|
A|---------------------------------------------------------------------------|
E|---------------------------------------------------------------------------|
  moonlight shadow The crowd gathered just to leave him  Carried away by a

e|--1--1-----------1--1--1--4---2-1-1---------------1------------1-----------|
B|--------4--------------------------------2----4-4---4-4----------4-2--2----|
G|----------1-------------------------------------------------------------3--|
D|---------------------------------------------------------------------------|
A|---------------------------------------------------------------------------|
E|---------------------------------------------------------------------------|
 moonlight shadow Caught in the middle of a hundred and five    Far away on the

e|------1------------1---1-4-2-1-1-------------------------------------------|
B|--4-4---4-4---2-4----------------2--4-1----------------1---2-2-1------1-2--|
G|----------------------------------------3-1-1-------3--------------3-------|
D|---------------------------------------------------------------------------|
A|---------------------------------------------------------------------------|
E|---------------------------------------------------------------------------|
other side.The night was heavy and the air was alive But she couldn't find how to push

e|-----------------------------------------------------1----1----------------|
B|--4-------------------------------1-1-2-4-4-4---2-4-----------4------------|
G|----------------------------------------------------------------1----------|
D|---------------------------------------------------------------------------|
A|---------------------------------------------------------------------------|
E|---------------------------------------------------------------------------|
  through                          Carried away by a moonlight shadow

e|---------------------------------1----1------------------------------------|
B|----------------1-1-2-4-4----2-4----------4--------------------------------|
G|--------------------------------------------1------------------------------|
D|---------------------------------------------------------------------------|
A|---------------------------------------------------------------------------|
E|---------------------------------------------------------------------------|
                Carried away by a moonlight shadow

e|--1-------------------1----------------------------------------------------|
B|-------4-2---2----4-4---4-4------------------------------------------------|
G|---------------3-----------------------------------------------------------|
D|---------------------------------------------------------------------------|
A|---------------------------------------------------------------------------|
E|---------------------------------------------------------------------------|
   far away on the other side




| /  slide up
| \  slide down
| h  hammer-on
| p  pull-off
| ~  vibrato
| +  harmonic
| x  Mute note
===============================================================================
comments
We did not receive enough feedback on this tab! Please rate:
print report bad tab
1 2 3 4 5
I want to post or [tab]
guest
You may want to rate the tab now too:
select rating
Please do not post tabs as comments. Select "correction" instead!