Oops, an error
Loading. Please wait.

On Horseback Tab

version 1
version 1

Whole song

Interactive

9,678 views 21 this week
no commentswrite comment
1 2 3 4 5
x 3
add to favorites
launch autoscroll
font size
0
reset
how to read this tab
guitar tuner
Autoscroll
slow
fast
+/-
esc
set tempo
stop
Help us to improve Ultimate-Guitar.com Take our survey!
×
Author
On Horseback - Mike Oldfield

   Intro:
E |-----------------0---|------2-----------|
B |---------0---1-------|--3-------0-----3-|
G |-----0---------------|------------------|
D |--0-------0-------0--|------0-------0---|
A |---------------------|------------------|
E |-----3-------3-------|--3-------3-------|

E |------0-----------|------------------|
B |--1-----------1---|--0h1-1h3---------|
G |----------2-------|----------0---0h2-|
D |------0-------0---|------0-----------|
A |------------------|------------------|
E |--3-------3-------|--3-------3---2---|

E |--------------0---|----0-0h2---------|
B |------0h1-1h3-----|--3-------0-----3-|
G |--0---------------|------------------|
D |------2-------2---|------2-------2---|
A |------------------|------------------|
E |--0-------0-------|--0-------0-------|

E |------0-----------|------------------|
B |--1---------0-0h1-|--0---------------|
G |----------2-------|----------2-----0-|
D |------2-------2---|------0-------0---|
A |------------------|------------------|
E |--0-------0-------|--3-------2-------|

   Verse:
E |-----------------0---|------2-----------|
B |---------0---1-------|--3-------0-----3-|
G |-----0---------------|------------------|
D |--0-------0-------0--|------0-------0---|
A |---------------------|------------------|
E |-----3-------3-------|--3-------3-------|

E |------0-----------|------------------|
B |--1-----------1---|--0h1-1h3---------|
G |----------2-------|----------0---0h2-|
D |------0-------0---|------0-----------|
A |------------------|------------------|
E |--3-------3-------|--3-------3---2---|

E |--------------0---|----0-0h2---------|
B |------0h1-1h3-----|--3-------0-----3-|
G |--0---------------|------------------|
D |------2-------2---|------2-------2---|
A |------------------|------------------|
E |--0-------0-------|--0-------0-------|

E |------0-----------|------------------|
B |--1---------0-0h1-|--0---------------|
G |----------2-------|----------2-----0-|
D |------2-------2---|------0-------0---|
A |------------------|------------------|
E |--0-------0-------|--3-------2-------|

   Chorus:
E |------------------|------------0-0h2-|
B |----------0---1---|--3-------3-------|
G |--0---0h2---------|----2-2-------2---|
D |------0-------0---|--0-------0-------|
A |------------------|------------------|
E |--3-------3-------|------------------|

E |--0---------------|------------------|
B |------------------|--0---0-0-0h1-3---|
G |------0-0-0---0h2-|------------------|
D |------2-----------|------0-------0---|
A |------------------|------------------|
E |--0-------0---0h2-|--3-------3-------|

E |------0-------0---|------2-----------|
B |--1---------------|--3-------0-----3-|
G |----------0-------|------------------|
D |------2-------0---|------0-------0---|
A |--3---------------|------------------|
E |----------3-------|--3-------3-------|

E |------0-----------|------------------|
B |--1-----------0h1-|--0h1-1h3---------|
G |----------2-------|----------0---0h2-|
D |------0-------0---|------0-----------|
A |------------------|------------------|
E |--3-------3-------|--3-------3---2---|

E |--------------0---|----0-0h2---------|
B |------0h1-1h3-----|--3-------0-----3-|
G |--0---------------|------------------|
D |------2-------2---|------2-------2---|
A |------------------|------------------|
E |--0-------0-------|--0-------0-------|

E |------0-----------|------------------|
B |--1---------0-0h1-|--0---------------|
G |----------2-------|----------2-----0-|
D |------2-------2---|------0-------0---|
A |------------------|------------------|
E |--0-------0-------|--3-------2-------|

   Verse:
E |-----------------0---|------2-----------|
B |---------0---1-------|--3-------0-----3-|
G |-----0---------------|------------------|
D |--0-------0-------0--|------0-------0---|
A |---------------------|------------------|
E |-----3-------3-------|--3-------3-------|

E |------0-----------|------------------|
B |--1-----------1---|--0h1-1h3---------|
G |----------2-------|----------0---0h2-|
D |------0-------0---|------0-----------|
A |------------------|------------------|
E |--3-------3-------|--3-------3---2---|

E |--------------0---|----0-0h2---------|
B |------0h1-1h3-----|--3-------0-----3-|
G |--0---------------|------------------|
D |------2-------2---|------2-------2---|
A |------------------|------------------|
E |--0-------0-------|--0-------0-------|

E |------0-----------|------------------|
B |--1---------0-0h1-|--0---------------|
G |----------2-------|----------2-----0-|
D |------2-------2---|------0-------0---|
A |------------------|------------------|
E |--0-------0-------|--3-------2-------|

   Verse:
E |-----------------0---|------2-----------|
B |---------0---1-------|--3-------0-----3-|
G |-----0---------------|------------------|
D |--0-------0-------0--|------0-------0---|
A |---------------------|------------------|
E |-----3-------3-------|--3-------3-------|

E |------0-----------|------------------|
B |--1-----------1---|--0h1-1h3---------|
G |----------2-------|----------0---0h2-|
D |------0-------0---|------0-----------|
A |------------------|------------------|
E |--3-------3-------|--3-------3---2---|

E |--------------0---|----0-0h2---------|
B |------0h1-1h3-----|--3-------0-----3-|
G |--0---------------|------------------|
D |------2-------2---|------2-------2---|
A |------------------|------------------|
E |--0-------0-------|--0-------0-------|

E |------0-----------|------------------|
B |--1---------0-0h1-|--0---------------|
G |----------2-------|----------2-----0-|
D |------2-------2---|------0-------0---|
A |------------------|------------------|
E |--0-------0-------|--3-------2-------|

   Chorus:
E |------------------|------------0-0h2-|
B |----------0---1---|--3-------3-------|
G |--0---0h2---------|----2-2-------2---|
D |------0-------0---|--0-------0-------|
A |------------------|------------------|
E |--3-------3-------|------------------|

E |--0---------------|------------------|
B |------------------|--0---0-0-0h1-3---|
G |------0-0-0---0h2-|------------------|
D |------2-----------|------0-------0---|
A |------------------|------------------|
E |--0-------0---0h2-|--3-------3-------|

E |------0-------0---|------2-----------|
B |--1---------------|--3-------0-----3-|
G |----------0-------|------------------|
D |------2-------0---|------0-------0---|
A |--3---------------|------------------|
E |----------3-------|--3-------3-------|

E |------0-----------|------------------|
B |--1-----------0h1-|--0h1-1h3---------|
G |----------2-------|----------0---0h2-|
D |------0-------0---|------0-----------|
A |------------------|------------------|
E |--3-------3-------|--3-------3---2---|

E |--------------0---|----0-0h2---------|
B |------0h1-1h3-----|--3-------0-----3-|
G |--0---------------|------------------|
D |------2-------2---|------2-------2---|
A |------------------|------------------|
E |--0-------0-------|--0-------0-------|

E |------0-----------|------------------|
B |--1---------0-0h1-|--0---------------|
G |----------2-------|----------2-----0-|
D |------2-------2---|------0-------0---|
A |------------------|------------------|
E |--0-------0-------|--3-------2-------|

   Verse:
E |-----------------0---|------2-----------|
B |---------0---1-------|--3-------0-----3-|
G |-----0---------------|------------------|
D |--0-------0-------0--|------0-------0---|
A |---------------------|------------------|
E |-----3-------3-------|--3-------3-------|

E |------0-----------|------------------|
B |--1-----------1---|--0h1-1h3---------|
G |----------2-------|----------0---0h2-|
D |------0-------0---|------0-----------|
A |------------------|------------------|
E |--3-------3-------|--3-------3---2---|

E |--------------0---|----0-0h2---------|
B |------0h1-1h3-----|--3-------0-----3-|
G |--0---------------|------------------|
D |------2-------2---|------2-------2---|
A |------------------|------------------|
E |--0-------0-------|--0-------0-------|

E |------0-----------|------------------|
B |--1---------0-0h1-|--0---------------|
G |----------2-------|----------2-----0-|
D |------2-------2---|------0-------0---|
A |------------------|------------------|
E |--0-------0-------|--3-------2-------|

   Verse:
E |-----------------0---|------2-----------|
B |---------0---1-------|--3-------0-----3-|
G |-----0---------------|------------------|
D |--0-------0-------0--|------0-------0---|
A |---------------------|------------------|
E |-----3-------3-------|--3-------3-------|

E |------0-----------|------------------|
B |--1-----------1---|--0h1-1h3---------|
G |----------2-------|----------0---0h2-|
D |------0-------0---|------0-----------|
A |------------------|------------------|
E |--3-------3-------|--3-------3---2---|

E |--------------0---|----0-0h2---------|
B |------0h1-1h3-----|--3-------0-----3-|
G |--0---------------|------------------|
D |------2-------2---|------2-------2---|
A |------------------|------------------|
E |--0-------0-------|--0-------0-------|

E |------0-----------|------------------|
B |--1---------0-0h1-|--0---------------|
G |----------2-------|----------2-----0-|
D |------2-------2---|------0-------0---|
A |------------------|------------------|
E |--0-------0-------|--3-------2-------|

   Chorus:
E |------------------|------------0-0h2-|
B |----------0---1---|--3-------3-------|
G |--0---0h2---------|----2-2-------2---|
D |------0-------0---|--0-------0-------|
A |------------------|------------------|
E |--3-------3-------|------------------|

E |--0---------------|------------------|
B |------------------|--0---0-0-0h1-3---|
G |------0-0-0---0h2-|------------------|
D |------2-----------|------0-------0---|
A |------------------|------------------|
E |--0-------0---0h2-|--3-------3-------|

E |------0-------0---|------2-----------|
B |--1---------------|--3-------0-----3-|
G |----------0-------|------------------|
D |------2-------0---|------0-------0---|
A |--3---------------|------------------|
E |----------3-------|--3-------3-------|

E |------0-----------|------------------|
B |--1-----------0h1-|--0h1-1h3---------|
G |----------2-------|----------0---0h2-|
D |------0-------0---|------0-----------|
A |------------------|------------------|
E |--3-------3-------|--3-------3---2---|

E |--------------0---|----0-0h2---------|
B |------0h1-1h3-----|--3-------0-----3-|
G |--0---------------|------------------|
D |------2-------2---|------2-------2---|
A |------------------|------------------|
E |--0-------0-------|--0-------0-------|

E |------0-----------|------------------|
B |--1---------0-0h1-|--0---------------|
G |----------2-------|----------2-----0-|
D |------2-------2---|------0-------0---|
A |------------------|------------------|
E |--0-------0-------|--3-------2-------|

   Verse:
E |-----------------0---|------2-----------|
B |---------0---1-------|--3-------0-----3-|
G |-----0---------------|------------------|
D |--0-------0-------0--|------0-------0---|
A |---------------------|------------------|
E |-----3-------3-------|--3-------3-------|

E |------0-----------|------------------|
B |--1-----------1---|--0h1-1h3---------|
G |----------2-------|----------0---0h2-|
D |------0-------0---|------0-----------|
A |------------------|------------------|
E |--3-------3-------|--3-------3---2---|

E |--------------0---|----0-0h2---------|
B |------0h1-1h3-----|--3-------0-----3-|
G |--0---------------|------------------|
D |------2-------2---|------2-------2---|
A |------------------|------------------|
E |--0-------0-------|--0-------0-------|

E |------0-----------|------------------|
B |--1---------0-0h1-|--0---------------|
G |----------2-------|----------2-----0-|
D |------2-------2---|------0-------0---|
A |------------------|------------------|
E |--0-------0-------|--3-------2-------|

   Verse:
E |-----------------0---|------2-----------|
B |---------0---1-------|--3-------0-----3-|
G |-----0---------------|------------------|
D |--0-------0-------0--|------0-------0---|
A |---------------------|------------------|
E |-----3-------3-------|--3-------3-------|

E |------0-----------|------------------|
B |--1-----------1---|--0h1-1h3---------|
G |----------2-------|----------0---0h2-|
D |------0-------0---|------0-----------|
A |------------------|------------------|
E |--3-------3-------|--3-------3---2---|

E |--------------0---|----0-0h2---------|
B |------0h1-1h3-----|--3-------0-----3-|
G |--0---------------|------------------|
D |------2-------2---|------2-------2---|
A |------------------|------------------|
E |--0-------0-------|--0-------0-------|

E |------0-----------|------------------|
B |--1---------0-0h1-|--0---------------|
G |----------2-------|----------2-----0-|
D |------2-------2---|------0-------0---|
A |------------------|------------------|
E |--0-------0-------|--3-------2-------|

   Chorus:
E |------------------|------------0-0h2-|
B |----------0---1---|--3-------3-------|
G |--0---0h2---------|----2-2-------2---|
D |------0-------0---|--0-------0-------|
A |------------------|------------------|
E |--3-------3-------|------------------|

E |--0---------------|------------------|
B |------------------|--0---0-0-0h1-3---|
G |------0-0-0---0h2-|------------------|
D |------2-----------|------0-------0---|
A |------------------|------------------|
E |--0-------0---0h2-|--3-------3-------|

E |------0-------0---|------2-----------|
B |--1---------------|--3-------0-----3-|
G |----------0-------|------------------|
D |------2-------0---|------0-------0---|
A |--3---------------|------------------|
E |----------3-------|--3-------3-------|

E |------0-----------|------------------|
B |--1-----------0h1-|--0h1-1h3---------|
G |----------2-------|----------0---0h2-|
D |------0-------0---|------0-----------|
A |------------------|------------------|
E |--3-------3-------|--3-------3---2---|

E |--------------0---|----0-0h2---------|
B |------0h1-1h3-----|--3-------0-----3-|
G |--0---------------|------------------|
D |------2-------2---|------2-------2---|
A |------------------|------------------|
E |--0-------0-------|--0-------0-------|

E |------0-----------|------------------|
B |--1---------0-0h1-|--0---------------|
G |----------2-------|----------2-----0-|
D |------2-------2---|------0-------0---|
A |------------------|------------------|
E |--0-------0-------|--3-------2-------|

   Chorus:
E |------------------|------------0-0h2-|
B |----------0---1---|--3-------3-------|
G |--0---0h2---------|----2-2-------2---|
D |------0-------0---|--0-------0-------|
A |------------------|------------------|
E |--3-------3-------|------------------|

E |--0---------------|------------------|
B |------------------|--0---0-0-0h1-3---|
G |------0-0-0---0h2-|------------------|
D |------2-----------|------0-------0---|
A |------------------|------------------|
E |--0-------0---0h2-|--3-------3-------|

E |------0-------0---|------2-----------|
B |--1---------------|--3-------0-----3-|
G |----------0-------|------------------|
D |------2-------0---|------0-------0---|
A |--3---------------|------------------|
E |----------3-------|--3-------3-------|

E |------0-----------|------------------|
B |--1-----------0h1-|--0h1-1h3---------|
G |----------2-------|----------0---0h2-|
D |------0-------0---|------0-----------|
A |------------------|------------------|
E |--3-------3-------|--3-------3---2---|

E |--------------0---|----0-0h2---------|
B |------0h1-1h3-----|--3-------0-----3-|
G |--0---------------|------------------|
D |------2-------2---|------2-------2---|
A |------------------|------------------|
E |--0-------0-------|--0-------0-------|

E |------0-----------|------------------|
B |--1---------0-0h1-|--0---------------|
G |----------2-------|----------2-----0-|
D |------2-------2---|------0-------0---|
A |------------------|------------------|
E |--0-------0-------|--3-------2-------|

   Ending:
E |------0-----------|------------------|-----|
B |--1---------0-0h1-|--0---------------|-----|
G |----------2-------|----------2-------|--0--|
D |------2-------2---|------0-------0---|-----|
A |------------------|------------------|-----|
E |--0-------0-------|--3-------2-------|--3--|
Suggest correction
Give kudos to tab author, rate the tab!
1 2 3 4 5
comments
print report bad tab
guest
You may want to rate the tab now too:
select rating
Wanna post a correction for this tab? Suggest correction