Oops, an error
Loading. Please wait.

Orabidoo Tab

307 views 1 this week
no commentswrite comment
1 2 3 4 5
excellent!
x 4
add to favorites
launch autoscroll
font size
0
reset
how to read this tab
guitar tuner
Tab Pro tools
  • play this tab
  • loop segment
  • change instrument
  • show fretboard
  • metronome
Autoscroll
slow
fast
+/-
esc
set tempo
stop
Contributor
                              Artist - Mike Oldfield
                             ************************
                                 Song - Orabidoo
                                *****************
                              Album - Five Miles Out
                             ************************

There was no need to do the whole song. 
Someone has already did a great tab for the chords. 
So here is the solos and other guitars. 

03:22
 Clean Guitar 1 - Slilghtly Muted Constantly strum these notes
[--------------------------------------------------------------------------]
[--------------------------------------------------------------------------]
[--------------------------------------------------------------------------]
[--9----------------7---------------9---------------7----------------------]
[--7----------------5---------------7---------------5----------------------]
[--------------------------------------------------------------------------]
|                                                                          |
|Clean Guitar 2                                                            |
[--------------------------------------------------------------------------]
[----9-------9--9-------------7--5-------------9--9---------7--5-----------]
[-------s--9-------------s--7-------------s--9---------s--7----------------]
[------7\9--------------5\7---------9----7\9----------5\7---------7--------]
[--------------------------------------------------------------------------]
[--------------------------------------------------------------------------]
|                                                                          |
|Distorted Guitar 3                                                        |
[----r-b-r-b-------------r-b-r-b-----------r-b-r-b---------r-b-r-b---------]
[--16------------------14----------------16--------------14----------------]
[------------13------------------11----------------13--------------11------]
[--------------------------------------------------------------------------]
[--------------------------------------------------------------------------]
[--------------------------------------------------------------------------]


 Guitar 1
[--------------------------------------------------------------------------]
[--------------------------------------------------------------------------]
[--------------------------------------------------------------------------]
[--------------------------------------------------------------------------]
[--7-----------------------------------------------------------------------]
[--5-----------------------------------------------------------------------]
|                                                                          |
|Guitar 2                                                                  |
[------------------------------------------12---h--------------------------]
[---------------------------------------------12-14---p--------------------]
[---------------------------------------------------14-13------------------]
[---------------------------------------------------------14---------------]
[--------------------------------------------------------------------------]
[--------------------------------------------------------------------------]
|                                                                          |
|Guitar 3                     h  p                                         |
[-------------21---21-21-19-17-19-17-16-19---------------------------------]
[--------------------------------------------------------------------------]
[--------------------------------------------------------------------------]
[--------------------------------------------------------------------------]
[--------------------------------------------------------------------------]
[--------------------------------------------------------------------------]



Play the above again and then the chords go something like this
on the second time around. not 100% sure if these are right.
[--------------------------------------------------------------------------]
[--------------------------------------------------------------------------]
[---s----------------------------------------------------------------------]
[--9\11-11-9-7-6-9-----9----11---13---14-----------------------------------]
[----------------------7----9----11---12-----------------------------------]
[--------------------------------------------------------------------------]

Repeat all above when it come in again
Comes back in at 
05:20

this guitar comes in at
05:47                                            this sounds 06:05
    rb  rb     rb  rb       rb  rb     rb  rb    like a slide, fret?
[--23--23-----21--21----|--23--23-----21--21-----|--21\32---32----]
[---------21---------19-|---------21---------19--|----------------]
[-----------------------|------------------------|----------------]
[------------------------------------------------|----------------]
[-----------------------------------------------------------------]
[-----------------------------------------------------------------]

                  p                           s
[--12-14-16--17-17-16-14-21-19--|--16-17-19-19\12-12-12--]
[-------------------------------|------------------------]
[-------------------------------|------------------------]
[-------------------------------|------------------------]
[-------------------------------|------------------------]
[-------------------------------|------------------------]

                     p
[---s-12-14-16--17-17-16-14-21-19--|--16-17-19-19-19--]
[--5\------------------------------|------------------]
[----------------------------------|------------------]
[----------------------------------|------------------]
[----------------------------------|------------------]
[----------------------------------|------------------]

               s      s         s                                      s
[--22-21-19--14\16--14\16-14~~~~\---|--11-12-21--11-12-19--11-12-12~~~~\---]
[-----------------------------------|--------------------------------------]
[-----------------------------------|--------------------------------------]
[-----------------------------------|--------------------------------------]
[-----------------------------------|--------------------------------------]
[-----------------------------------|--------------------------------------]


[--22--21--]
[----------]
[----------]
[----------]
[----------]
[----------]


Keyboards - 07:00
******************


Distorted Guitar Chords
************************
07:50
[-------------------------------------------------------------]
[-------------------------------------------------------------]
[--7-7--7--7-7---7-7--7--7-7--7p5--7-7--7--7-7---7-7--7--7-7--]
[--7-7--7--7-7---7-7--7--7-7--7p5--7-7--7--7-7---7-7--7--7-7--]
[--7-7--7--7-7---7-7--7--7-7-------7-7--7--7-7---7-7--7--7-7--]
[--5-5--5--5-5---5-5--5--5-5-------5-5--5--5-5---5-5--5--5-5--]


[-------------------------------------------]
[-------------------------------------------]
[--7-7--7--7-7---7-7--7--7-7---7-7--7--7-7--]Repeat
[--7-7--7--7-7---7-7--7--7-7---7-7--7--7-7--]2 Times
[--7-7--7--7-7---7-7--7--7-7---7-7--7--7-7--]
[--5-5--5--5-5---5-5--5--5-5---5-5--5--5-5--]


Cool Solo
**********
08:33
             h p
[-----12-8--7-8-7------10-7--|--8-10-----10--12----8-12--]
[--10-------------10-8-------|---------8--------10-------]
[----------------------------|-------9-------------------]
[----------------------------|---------------------------]
[----------------------------|---------------------------]
[----------------------------|---------------------------]

               h p
[-------12-8--7-8-7------10-7--|--8-10-----10--12-8----------]
[----10-------------10-8-------|---------8----------10---10--]
[--9---------------------------|-------9---------------9-----]
[------------------------------|-----------------------------]
[------------------------------|-----------------------------]
[------------------------------|-----------------------------]

              h  p
[-----17-13-12-13-12-------15-12-13-15--|------10--12------8--12--]
[--15----------------15-13--------------|----8----------10--------]
[---------------------------------------|--9----------9-----------]
[---------------------------------------|-------------------------]
[---------------------------------------|-------------------------]
[---------------------------------------|-------------------------]

              h  p
[-----17-13-12-13-12-------15-12-13-15--|------10--12-8---------]
[--15----------------15-13--------------|----8----------10---8--]
[---------------------------------------|--9---------------9----]Repeat
[---------------------------------------|-----------------------]2 Times
[---------------------------------------|-----------------------]
[---------------------------------------|-----------------------]
                                        |                       |
                                        |                       |
                                        [------10-12-8---7------]
                                        [----8---------10--8-10-]Play
                                        [--9--------------------]This
                                        [-----------------------]2nd
                                        [-----------------------]Time
                                        [-----------------------]Around



[--12-8---10-7-----10------12--|--12-8---10-7-----10------12--]
[----------------8------10-----|----------------8------10-----]
[------------------------------|------------------------------]
[------------------------------|------------------------------]
[------------------------------|------------------------------]
[------------------------------|------------------------------]

                                                             hold
[--17-13---15-12----10-----12--|--17-13---15-12----10--8--7--5-~~~~--------]
[-----------------8-----10-----|-----------------8-------------------------]
[------------------------------|-------------------------------------------]
[------------------------------|-------------------------------------------]
[------------------------------|-------------------------------------------]
[------------------------------|-------------------------------------------]


This is not 100% there is a lot going on in this song, 
But you might find it useful......Enjoy.

This is Classic Mike Oldfield Tune.
comments
print report bad tab
I want to post or [tab]
guest
You may want to rate the tab now too:
select rating
Please do not post tabs as comments. Select "correction" instead!