Oops, an error
Loading. Please wait.

Our Father Tab

1,212 views 1 this week
no commentswrite comment
1 2 3 4 5
excellent!
x 4
add to favorites
launch autoscroll
font size
0
reset
how to read this tab
guitar tuner
Tab Pro tools
  • play this tab
  • loop segment
  • change instrument
  • show fretboard
  • metronome
Autoscroll
slow
fast
+/-
esc
set tempo
stop
Contributor
Difficulty
intermediate
Mike Oldfield
Our Father
From - Light And Shade

  b = Bend
 br = Release Bend
 rb = Release Bend
rbp = Release Bend Pull Off
brp = Bend Release Pull Off
  s = Slide
  h = Hammer On
  p = Pull Off
  x = Rake

[-----------------------------------------------|--------------------------]
[-----------------------------------------------|-br---------------rb------]
[-8-------8--11---8-----------------------s-----|-8--------8--11---8-------]
[-------9-----------8-9----6--8------4--6-\-8---|----6--9------------8-9---]
[--------------------------------6--------------|--------------------------]
[-----------------------------------------------|--------------------------]

                      00:22
[---------------------|---------------------------|----------------|-------]
[---------------------|--br--------------s--------|--b-----h-p-s---|-------]
[----------------s----|--6--------9---11-\-13-11--|--6-6--6-8-6\4--|--h--6-]
[--6--8-----4--6-\-8--|-----6--11-----------------|----------------|-6-9---]
[--------6------------|---------------------------|----------------|-------]
[---------------------|---------------------------|----------------|-------]

                                       00:44
[------------------------|------------|------------------------------------]
[---------------s--------|-br--h-p-s--|--br--------------rb----------------]
[---------9--11-\-13-11--|-6--6-8-6\4-|--8-------8--11---8-------p---------]
[--6--11-----------------|------------|-----6--9-----------8-9--9-8--6--8--]
[------------------------|------------|------------------------------------]
[------------------------|------------|------------------------------------]


[---------|----------------------|------------------|----------------------]
[---------|--br-----------s------|--h--p-s-----h-p--|----------------------]
[---------|--8----8--11-11\13--11|-9-11-9\8---8-9-8-|-----p-s--------------]
[-----h---|-----9----------------|----------11------|-6--9-8\6--8----------]
[-6--6-9--|----------------------|------------------|---------------6-6----]
[---------|----------------------|------------------|----------------------]

01:07
[-------------|-------------|-------------|------------------|-------------]
[-------------|----s--------|--br--h---s--|------------------|--s----------]
[--6-----6--9-|-11-\-13--11-|--6--6-8-6\4-|-------6--------9-|-9\11--13--11]
[------6------|-------------|-------------|--6--9----6--11---|-------------]
[-------------|-------------|-------------|------------------|-------------]
[-------------|-------------|-------------|------------------|-------------]

                            Piano Comes In
                              01:29
[-----------------|---------|------|---------------s-------|-------------s-]
[--b--rbp---------|------s--|------|--------s--7--7\9--7---|---------7--7\9]
[--6--6--4---4--6-|-6-8-6\4-|------|----6--8\9-------------|-6--8--9-------]
[----------6------|---------|------|--6------------------9-|---------------]
[-----------------|---------|------|-----------------------|---------------]
[-----------------|---------|------|-----------------------|---------------]

                                            Rake
[----------------h------------------------|---------p--------------]
[---------------7-9-7---------------------|------x-5-4--b----------]
[----6-6--8--9-----------6--8--6---6------|----x-------6--4-4---4--]
[--6------------------9----------9---6-6--|--x----------------6----]
[-----------------------------------------|------------------------]
[-----------------------------------------|------------------------]

                                           02:14
[--------------|--------------------------|--------------------------------]
[--------------|------------h-p-----------|---------br---s-------------h-p-]
[--6-6----8-9--|--6-9-8-8--8-9-8--6----6--|--s-8---8---8-\-11--9-8----8-9-8]
[------6-------|---------------------9----|6-\----------------------11-----]
[--------------|--------------------------|--------------------------------]
[--------------|--------------------------|--------------------------------]


[--------------------------|-----------brp-------------------------]
[--------------------------|-----9-11--11-9-11---------------------]
[--------br----------------|--8---------------8-8\11--9--8-6-8-6-8-]
[--6--8--8--6--8-----h-----|---------------------------------------]
[----------------6--6-9--6-|---------------------------------------]
[--------------------------|---------------------------------------]

                             02:37
[----------------------------|---------------------------------------------]
[----------------------------|-------------brp------------------h-p-s------]
[------br---s----------------|--6-------9--11-9-11----11-8--6--6-8-6\4-----]
[--6-8-8-6-6\8----------s----|----6--11-----------9------------------------]
[---------------6--4--6-\-9--|---------------------------------------------]
[----------------------------|---------------------------------------------]


[---------|-----------------------|------------|--------------]
[---------|-----------s-----p-h---|------------|--h---h-p-s---]
[-------6-|------9--11\13-11-9-11-|---11--s----|-6-8-6-8-6\4--]
[--6--9---|-6--11-----------------|-9----9\11--|--------------]
[---------|-----------------------|------------|--------------]
[---------|-----------------------|------------|--------------]

 03:09
[---------------s--------|-------------s---]
[--------s--7--7\9--7----|---------7--7\9--]
[----6--8\9--------------|-6--8--9---------]
[--6------------------9--|-----------------]
[------------------------|-----------------]
[------------------------|-----------------]


[----------------h------------------------|---------p--------------]
[---------------7-9-7---------------------|------x-5-4--b----------]
[----6-6--8--9-----------6--8--6---6------|----x-------6--4-4---4--]
[--6------------------9----------9---6-6--|--x----------------6----]
[-----------------------------------------|------------------------]
[-----------------------------------------|------------------------]


[--------------|--------------------------]
[--------------|------------h-p-----------]
[--6-6----8-9--|--6-9-8-8--8-9-8--6----6--]
[------6-------|---------------------9----]
[--------------|--------------------------]
[--------------|--------------------------]


Faded Distorted Guitar
05:17
[---b-hold-rb-----rb----]
[--19------19-19--17-17-]
[-----------------------] X2
[-----------------------]
[-----------------------]
[-----------------------]



05:56
[---------------------------------------------]
[-------------------h-p-------h---------s-----]
[--------8-\-11-9-8--9-8-----8-9--11-11-\13---]
[--6--11------------------11------------------]
[---------------------------------------------]
[---------------------------------------------]

Pinch                        Pinch
Harmonics                    Harmonics
06:17
[---br------------------|-----br---------s-----|---------------------------]
[--9---7----7-----------|-9--9---7---7--9\10-9-|--7------------------------]
[--------9----9--8-8-9--|----------9-----------|--------9----8--9----------]
[-----------------------|----------------------|-----6-----6---------------]
[-----------------------|----------------------|---------------------------]
[-----------------------|----------------------|---------------------------]

comments
print report bad tab
I want to post or [tab]
guest
You may want to rate the tab now too:
select rating
Please do not post tabs as comments. Select "correction" instead!