Oops, an error
Loading. Please wait.

Outcast Tab

version 2
version 2

Whole song

Interactive

2,398 views 3 this week
1 commentread comment
1 2 3 4 5
please rate
add to favorites
launch autoscroll
font size
0
reset
how to read this tab
guitar tuner
Tab Pro tools
  • play this tab
  • loop segment
  • change instrument
  • show fretboard
  • metronome
×
Best way to learn
"Outcast"
Autoscroll
slow
fast
+/-
esc
set tempo
stop
Contributor
Difficulty
novice



				By GoheX





|------------------------------|
|------------------------------|
|7-7-7--5-5-5---10-10-10--7-7--|	|
|7-7-7--5-5-5---10-10-10--7-7--|	|
|5-5-5--3-3-3----8--8--8--5-5--|	|
|------------------------------|	|
					|
					| X2 then distortion comes in
|------------------------------|	|
|------------------------------|	|
|7-7-7--5-5-5----2-2-2----5-5--|	|
|7-7-7--5-5-5----2-2-2----5-5--|	|
|5-5-5--3-3-3----0-0-0----3-3--|	|
|------------------------------|


for distortion intro play



|------------------------------|
|------------------------------|
|------------------------------|
|----7=====5-------------------|		(= means slide)
|------------------------------|
|------------------------------|

|------------------------------|
|------------------------------|
|------------------------------|
|------------------------------|
|---5--3--8-8--5-3--(0H3)-3--3-|  this bar x2         (0h3)  2ND TIME ONLY
|------------------------------|



Some higher notes played with whammy bar and phaser effect :D

|-----------------------------------------------------------------
|------------------------5---------------6---------------8--------
|-4-4-4-4-7-4-4-4-5-5-5-5---5-5-5-7-7-7-7---7-7-7-9-9-9-9---9-9-9-
|-----------------------------------------------------------------
|-----------------------------------------------------------------
|-----------------------------------------------------------------

|-------------------------------------------------------------------
|-------------------------5---------------6---------------8-------9-
|-4-4-4-4-7-4-4-4-5-5-5-5---5-5-5-7-7-7-7---7-7-7-9-9-9-9---9-9-9---
|-------------------------------------------------------------------
|-------------------------------------------------------------------
|-------------------------------------------------------------------


-----------------|
---------9-------|
---9-9-9---9-9-9-|
-----------------|
-----------------|
-----------------|

2 guitars are now playing so harder to play suprise suprise :P

--------------------------------------------------|
-10-------10-----------12---10--9-10-9------------|
----9-9-9----9-9-9-9------------------------------|
--------------------------------------------------|
--------------------------------------------------|
--------------------------------------------------|


Most now is just repeats and kick ass sythesized effects, then an AMAZING ending.


This can only be used for studying or practice rights for collage university school etc. 

Cannot be sold, copied or used ofr anything else without writen or typed permission by the 

author. 

Please contact me at Kennethnreid1@hotmail.com for corrections, complaints or compliments or 

any questions or interesting stuff ;P 

Thanks alot, Enjoy

						GoheX
comments
We did not receive enough feedback on this tab! Please rate:
print report bad tab
1 2 3 4 5
1 comment total.
0 reply
BlackAxxe wrote on December 10 2005, 03:59 am

Definitly My Fave Of your tabs, it sounds really good when i play it and im glad youv done outcast because it is definitly one of my fave mike oldfield songs, Bravo!

I want to post or [tab]
guest
You may want to rate the tab now too:
select rating
Please do not post tabs as comments. Select "correction" instead!