Oops, an error
Loading. Please wait.

Return To Ommadawn Part 2 solo tab

373 views 12 this week
1 commentread comment
1 2 3 4 5
2 more votes to show rating
add to favorites
×
Save as Personal and add changes to this tab that will be seen only by you. Learn more ›
×
You can save this tab as Personal to edit and correct it or add notes. All changes will be seen only by you. Learn more »
launch autoscroll
font size
0
reset
how to read this tab
guitar tuner
edit
Autoscroll
slow
fast
+/-
esc
set tempo
stop
About this tab version
Short acoustic excerpt (around time 15:29), tabbed by ear, fairly simple to play. Was this info helpful? Yes No
Album: Return To Ommadawn (2017)
Song: Return To Ommadawn Pt 2
Artist: Mike Oldfield
Tabbed by: PiN

Tuning: Standard
Tempo: 100 BPM
Capo: 3rd fret

(at 15:29)

E |--3--------2----|--0-------------|----------------|----------------|
B |-----0----------|--------3-------|----------------|----------------|
G |--------0-------|----------------|--0-------------|--0-------------|
D |--2--------0----|-----2-----2----|-----2-----2----|-----2-----2----|
A |----------------|--3-------------|--------2-------|--------2-------|
E |----------------|----------------|--0-------------|----------------|

                                                                    
E |--3--------2----|--0-------------|--2-------------|-----------2----|
B |-----0----------|--------3-------|--------3-------|--3--3--5-------|
G |--------0-------|-----0-----0----|-----4-----4----|----------------|
D |--2--------0----|----------------|--------4-------|----------------|
A |----------------|--3-------------|--2-------------|----------------|
E |----------------|----------------|----------------|----------------|

                                                                    
E |--3--------2----|--0-------------|----------------|----------------|
B |-----0----------|--------3-------|----------------|--0-----3-------|
G |--------0-------|----------------|--0-----2-------|-----0-----0----|
D |--2--------0----|-----2-----2----|-----0-----0----|--------0-------|
A |----------------|--3-------------|--------0-------|--2-------------|
E |----------------|----------------|--3-------------|----------------|

                                                                    
E |----------------|--0--2----------|--0-------------|-----------0----|
B |--3-----3-------|--------3h-0----|-----0----------|--------0-------|
G |-----4-----4----|----------------|--------0-------|-----0----------|
D |----------------|----------------|-----------4----|--2-------------|
A |--2-------------|----------------|----------------|----------------|
E |----------------|----------------|--0-------------|----------------|

                                                                    
E |----------------|--------0--2----|--2--------2----|----------------|
B |-----------0----|--1--3----------|--------0-------|--0-----0-------|
G |--------2-------|----------------|-----0----------|-----0-----0----|
D |-----2----------|----------------|----------------|----------------|
A |--0-------------|----------------|--------2-------|----------------|
E |----------------|----------------|--0-------------|----------------|

                                                                    
E |----------------|--------0--2----|--2h-5--3-------|--2-----0--3----|
B |-----------0----|--1--3----------|-----0-----0----|-----0----------|
G |--------2-------|----------------|----------------|----------------|
D |-----2----------|----------------|----------------|--2-------------|
A |--0-------------|----------------|--0-------------|----------------|
E |----------------|----------------|----------------|----------------|

                                                                    
E |----------------|--------0--2----|--2--------2----|-----------2----|
B |-----------0----|--1--3----------|--------0-------|--0-----0-------|
G |--------2-------|----------------|-----0----------|-----0----------|
D |-----2----------|----------------|----------------|----------------|
A |--0-------------|----------------|--------2-------|----------------|
E |----------------|----------------|--0-------------|----------------|

     ^                                 ^                ^
E |--1-------------|--1-------------|--0-------------|----------------||
B |--2-----2-------|--------2-------|--1-----1-------|--4-------------||
G |--3--3-----3----|-----3-----0----|--2--2-----2----|--4-----4-------||
D |--4-------------|----------------|--3-------------|--4--4-----4----||
A |----------------|----------------|----------------|--2-------------||
E |----------------|----------------|----------------|----------------||

Legend:
h - hammer on/pull off
^ - brush down
Suggest correction
Creating personal tab
Creating personal tab
You can edit any tab online and save it as your Personal.

You can edit, replace or remove any tab part or add personal notes – all changes will be seen only by you.

Personal tabs can be accessed anytime from any device, even offline.
Learn more »
Give kudos to tab author, rate the tab!
1 2 3 4 5
comments
print report bad tab
1 comment total.
0 reply
bzaina2 10 Mar 07, 2017 02:37 PM

Thank you, very good!

guest
You may want to rate the tab now too:
select rating
Wanna post a correction for this tab? Suggest correction