Oops, an error
Loading. Please wait.

Return To Ommadawn Pt 1 tab

2,248 views 30 this week
2 commentsread comments
1 2 3 4 5
x 10
add to favorites
×
Save as Personal and add changes to this tab that will be seen only by you. Learn more ›
×
You can save this tab as Personal to edit and correct it or add notes. All changes will be seen only by you. Learn more »
launch autoscroll
font size
0
reset
how to read this tab
guitar tuner
edit
Autoscroll
slow
fast
+/-
esc
set tempo
stop
Author
Difficulty
------------------------------------------------------------------------------------------------------------
                                          Artist - Mike Oldfield 
                                         ************************
                                      Song - Return To Ommadawn Pt 1
                                     ********************************
                                     Album - Return To Ommadawn (2017)     
                                    ***********************************
                                            Tabbed By - Ayreon77
                                           **********************
------------------------------------------------------------------------------------------------------------
Tuning = Standard          Here's my take on this classic new Mike Oldfield CD
                                      This is a Whopping 21:10 long.

                                             FINALLY COMPLETED
                                            *******************

INTRO
******
CLASSICAL GUITAR
00:24       h p                 00:39    h p       h p              h   s
e|-------5-5-6-5---------------|----3-5-5-6-5-3---5-6-5-3--------|-5-6-5\---------|
B|-----8---------8-6-----------|----------------6---------6----6-|-------------h--|
G|---7---------------7-5-------|-----------------------------7---|--------7-5-5-7-|
D|-5---------------------8-7-5-|---------------------------------|----------------|
A|-----------------------------|---------------------------------|----------------|
E|-----------------------------|---------------------------------|----------------|

00:51 h      s                         s                     h p
e|-6-6-8---15\--10--13--8--8--8-8-6-5-6\8-6-5-------------5-5-6-5---|
B|--------------------------------------------8----6---6----------8-|
G|----------------------------------------------7-------------------|
D|---------------------------------------------------3--------------|
A|------------------------------------------------------------------|
E|------------------------------------------------------------------|



--------------------------------
CLASSICAL GUITAR
01:20                                    h
e|-5--------|---------|-5-------------|-5-6-5-------|---------|
B|----6-5---|-----6-5-|---6-5---5-6-8-|-------6-5---|-----6-5-|
G|--------7-|---------|-------7-------|-----------7-|---------|
D|----------|---7-----|---------------|-------------|---7-----|
A|----------|-5-------|---------------|-------------|-5-------|
E|----------|---------|---------------|-------------|---------|

01:31
e|-5-------|--------h------|
B|---6-5---|---5---5-6-----|
G|-------7-|-----7-----5-7-|
D|---------|-7-------------|
A|---------|---------------|
E|---------|---------------|


--------------------------------
01:35
ELECTRIC GUITAR
****************
e|-------------------------------------------|-------------------------------------------|
B|-------------------------------------------|-------------------------------------------|
G|-------------------------------------0-2---|-------------------------------------------|
D|-0--0-0-0-0--0-0-0-0--0-0-0-0--0-2-3-----3-|---------------------------------0-2-3-2---|
A|-------------------------------------------|-3--3-3-3-3--3-3-3-3--3-3-3-3--3---------3-|
E|-------------------------------------------|-------------------------------------------|X4


01:58
CLASSICAL GUITAR
*****************
               s
e|----------3-5\-12--10--8----|
B|-3--3-5-6-----------------8-|
G|----------------------------|
D|----------------------------|
A|----------------------------|
E|----------------------------|


--------------------------------
02:06
  CLASSICAL GUITAR
  GUITAR 1                                                 h                       h
e|-5------------5---8-6-5-------|-----------------------|-5-6-5-----------5---8-6-5-6-5-------|
B|---6-5----6-8---8-------6-8-6-|-----------------------|-------6-5---6-8---8-----------6-8-6-|
G|-------7----------------------|-----------------------|-----------7-------------------------|
D|------------------------------|-----------------------|-------------------------------------|
A|------------------------------|-----------------------|-------------------------------------|
E|------------------------------|-----------------------|-------------------------------------|
 |CLASSICAL GUITAR                                                                            |
 |GUITAR 2                                                                                    |
e|------------------------------|-------------------------------------------------------------|
B|------------------------------|-------------------------------------------------------------|
G|------------------------------|-------------------------------------------------------------|
D|------------------------------|-5-2-0----0-2-0-2-3-2--s-------------------------------------|
A|------------------------------|-------3--------------3\--5-----------------5----------------|
E|------------------------------|-----------------------------------5------------------5------|


  CLASSICAL GUITAR
  GUITAR 1                       h
e|----------------------------|-5-6-5-----------5---8-6-5------s---------------------|
B|----------------------------|-------6-5---6-8---8---------6-6\8--------------------|
G|----------------------------|-----------7---------------7--------------------------|
D|----------------------------|------------------------------------------------------|
A|----------------------------|------------------------------------------------------|
E|----------------------------|------------------------------------------------------|
 |CLASSICAL GUITAR                                                                   |
 |GUITAR 2                                                                           |
e|----------------------------------------------------------|------------------------|
B|----------------------------------------------------------|------------------------|
G|----------------------------------------------------------|------------------------|
D|-0-2-3-5-2-0------0-2-0-3-2-------------------------------|-5-2-0------0-2-0-3-2---|
A|-------------3--3-----------3-0----5--------------5-------|-------3--3-----------3-|
E|-------------------------------------------5------------5-|------------------------|


02:28 
  CLASSICAL GUITAR
  GUITAR 1
    h p 
e|-5-6-5---5-----------5---8-6-5------s--|---------------------------|
B|-------8---6-5---6-8---8---------6-6\8-|---------------------------|
G|---------------7---------------7-------|---------------------------|
D|---------------------------------------|---------------------------|
A|---------------------------------------|---------------------------|
E|---------------------------------------|---------------------------|
 |CLASSICAL GUITAR                                                   |
 |GUITAR 2                                                           |
e|-------------------------------------------------------------------|
B|-------------------------------------------------------------------|
G|-------------------------------------s-----------------------------|
D|------------------------------0-2-3-3\5-2-0------0-2-0-2-3-2--s----|
A|--5--------------5--------------------------3--3-------------3\5-5-|
E|---------5----------------5----------------------------------------|

  ACOUSTIC GUITAR
e|-5-------|-5-------|--------h------|
B|---6-5---|---6-5---|---5---5-6-----|
G|-------7-|-------7-|-----7-----5-7-|
D|---------|---------|-7-------------|
A|---------|---------|---------------|
E|---------|---------|---------------|


--------------------------------
02:44
BASS 
*****

--------------------------------
03:14
  ACOUSTIC GUITAR
  GUITAR 1       h                                                h p           h
e|-6~~-5-----5--5-6-5-----|------6-6-5--------5--5-6-5-----|-8~~-6-8-6----10--10-11-10-8-8-|
B|-------6------------8---|------------6--6-8----------8-8-|-----------8-------------------|
G|----------------------8-|-7-7----------------------------|-------------------------------|
D|------------------------|--------------------------------|-------------------------------|
A|------------------------|--------------------------------|-------------------------------|
E|------------------------|--------------------------------|-------------------------------|
 |ELECTRIC CLEAN                                                                           |
 |GUITAR 2                                                           b           h  p   s  |
e|-------b--------------h----h---------b----------------h--p---------8--6---8-8-10-8-6-6\8-|
B|-------8--6--------8-8-10-6-8-8------8--6------------8-10-8-6-----------6----------------|
G|------------5-----------------------------5-------------------5--------------------------|
D|-----------------------------------------------------------------------------------------|
A|-----------------------------------------------------------------------------------------|
E|-----------------------------------------------------------------------------------------|

03:36
  ACOUSTIC GUITAR
  GUITAR 1      s
e|------11-11-10\6--6-8-10--10-11-10--8-10---|
B|-8-8---------------------------------------|
G|-------------------------------------------|
D|-------------------------------------------|
A|-------------------------------------------|
E|-------------------------------------------|
 |ELECTRIC GUITAR                            |
 |GUITAR 2       b                h  p     b |
e|---------------8--6-------10--10-11-10-8-8-|
B|--------------------6----------------------|
G|-------------------------------------------|
D|-------------------------------------------|
A|-------------------------------------------|
E|-------------------------------------------|


--------------------------------
Mandolin Comes In
03:44
  GUITAR 1      h                                                              
e|-6~~-5----5--5-6-5-----|------6-6-5--------5--5-6-5-----|-8~~-6-8-6----10--10-11-10-8-8-----|
B|-------6-----------8---|------------6--6-8----------8-8-|-----------8-----------------------|
G|---------------------8-|-7-7----------------------------|-----------------------------------|
D|-----------------------|--------------------------------|-----------------------------------|
A|-----------------------|--------------------------------|-----------------------------------|
E|-----------------------|--------------------------------|-----------------------------------|
 |ELECTRIC CLEAN                                                                              |
 |GUITAR 2      s     br         b                  s  s        b     b             s  s      |
e|---10-13-15-15\17--17-15----|-15--13------------15\17/15--13-13----20--18----20-20\22/20-18-|
B|-------------------------15-|--------13-----------------|-----------------18----------------|
G|----------------------------|---------------------------|-----------------------------------|
D|----------------------------|---------------------------|-----------------------------------|
A|----------------------------|---------------------------|-----------------------------------|
E|----------------------------|---------------------------|-----------------------------------|

04:07
  ACOUSTIC GUITAR
  GUITAR 1      s
e|------11-11-10\6--6-8-10--10-11-10--8-10-|
B|-8-8-------------------------------------|
G|-----------------------------------------|
D|-----------------------------------------|
A|-----------------------------------------|
E|-----------------------------------------|
 |ELECTRIC GUITAR                          |
 |GUITAR 2                                 |
 |  b          b                      b    |
e|-18---15----20----18---------------15----|
B|---------------------18------------------|
G|-----------------------------------------|
D|-----------------------------------------|
A|-----------------------------------------|
E|-----------------------------------------|


--------------------------------
04:14
  ACOUSTIC GUITAR  
  GUITAR 1      h                                                                        h
e|-6~~-5----5--5-6-5-----|------6-6-5--------5--5-6-5-----|-8~~-6-8-6----10--10-11-10-8-6-8-|
B|-------6-----------8---|------------6--6-8----------8-8-|-----------8---------------------|
G|---------------------8-|-7-7----------------------------|---------------------------------|
D|-----------------------|--------------------------------|---------------------------------|
A|-----------------------|--------------------------------|---------------------------------|
E|-----------------------|--------------------------------|---------------------------------|
 |ELECTRIC DISTORTED                                                                        |
 |GUITAR 2                                                                                  |
 |   s        h  p             br   s          s          h  p                 br     b     |
e|-10\18~~~-17-18-17-13~~~-17-17--15\11-|-10-10\-18-18--17-18-17-13--13-15-17-17--13-13-----|
B|--------------------------------------|---------------------------------------------------|
G|--------------------------------------|---------------------------------------------------|
D|--------------------------------------|---------------------------------------------------|
A|--------------------------------------|---------------------------------------------------|
E|--------------------------------------|---------------------------------------------------|

04:37
  ACOUSTIC GUITAR
  GUITAR 1      s
e|------11-11-10\6--6-8-10--10-11-10--8-10-----------------------------------|
B|-8-8-----------------------------------------------------------------------|
G|---------------------------------------------------------------------------|
D|---------------------------------------------------------------------------|
A|---------------------------------------------------------------------------|
E|---------------------------------------------------------------------------|
 |ELECTRIC DISTORTED                         pre                             |
 |GUITAR 2                                   bend                            |
 |        h  p           br      h  s        notes rb             br       s |
e|-20---18-20-18-----22-22--20-18-20\--15-15-22-22-22--18-20-22--22--20-22-\-|
B|---------------20----------------------------------------------------------|
G|---------------------------------------------------------------------------|
D|---------------------------------------------------------------------------|
A|---------------------------------------------------------------------------|
E|---------------------------------------------------------------------------|


--------------------------------
04:45
  CLASSICAL GUITAR
  GUITAR 1
     s                                                 s
e|-10\-6-5------|----------------------------------|-10\-6-5------|------------------------------------------|
B|---------8~~~-|----------------------------------|---------8~~~-|------------------------------------------|
G|--------------|----------------------------------|--------------|------------------------------------------|
D|--------------|----------------------------------|--------------|------------------------------------------|
A|--------------|----------------------------------|--------------|------------------------------------------|
E|--------------|----------------------------------|--------------|------------------------------------------|
 |ACOUSTIC - CAPO 3rd FRET                                                                                   |
 |GUITAR 2                                     D    Em                                                 D  Bm |
e|--------------|------------------------------2-----0-------------------------------------------------2---2-|
B|--------------|------------------------------3-----0-------------------------------------------------3---2-|
G|--------------|------------------------------2-----0-------------------------------------------------2---4-|
D|--------------|------------------------------0-----2-------------------------------------------------0---4-|
A|--------------|------------------------------------2-----------------------------------------------------2-|
E|--------------|------------------------------------0-------------------------------------------------------|
 |ELECTRIC CLEAN                                                                                             |
 |GUITAR 3                                                                               h  p                |
e|--------------|-------10----13-11-10---------s---|---------------|-------10----13-11-10-11-10--------b--b--|
B|--------------|-11-13----13----------13-11-11\13-|---------------|-11-13----13----------------13-11-11-13--|
G|--------------|----------------------------------|---------------|-----------------------------------------|
D|--------------|----------------------------------|---------------|-----------------------------------------|
A|--------------|----------------------------------|---------------|-----------------------------------------|
E|--------------|----------------------------------|---------------|-----------------------------------------|


--------------------------------
05:00
  GUITAR 1
  ELECTRIC DISTORTED - Palm Mute
e|--------------------------------------------|----------------------------------------------|
B|--------------------------------------------|----------------------------------------------|
G|--------------------------------------------|----------------------------------------------|
D|------5--------5---------5------------------|-----3---------------------3------------------|
A|--------------------------------------3-5-1-|--------------0-1-3-----------------0-1-1-3-1-|
E|-3--3---3-3--3---3-3-3-3---3--3-3-5-6-------|-1-1---1-1--1--------1-1-1---1-1--1-----------|


e|-----------------------------------------------|---------------------------------------|
B|-----------------------------------------------|---------------------------------------|
G|-----------------------------------------------|---------------------------------------|
D|-------5--------------------5------------------|-----3---------3-------3---------------|
A|-------------------3-5-------------------3-5-1-|-----------------------------0-1-1-3-1-|
E|-3-3-3---3-3-3-3-6------3-3---3-3--3-5-6-------|-1-1---1-1-1-1---1-1-1---1-1-----------|


--------------------------------
05:15
  ELECTRIC DISTORTED
  GUITAR 1
e|----------------------------------------------------|-----------------------------------------------------|
B|----------------------------------------------------|-----------------------------------------------------|
G|-------7------------7------------7------------------|------5-------------------------5--------------------|
D|------------------------------------------------5-7-|-------------------2-3-5-----------------------------|
A|-5-5-5---5-5--5-5-5---5-5--5-5-5---5-5--5-5-5-8-----|3-3-3---3-3--3-3-3-------3-3-3----3-3--3-3-3-3-3-3-3-|
E|----------------------------------------------------|-----------------------------------------------------|
 |ELECTRIC DISTORTED                                                                                        |
 |GUITAR 2                                                                                                  |
e|-----------------------~--s-------------------------s-----------------------------------s--s--------------|
B|-3~~~~~~~~~~~~~~~~~~~~~~~~\-6~~~~~~~~~~~~~~~~~~~~~~~\-8~~~~~~~~~~~~~~~~~~~~~~~~~~~~~~~-8\10\--------------|
G|----------------------------------------------------------------------------------------------------------|
D|----------------------------------------------------------------------------------------------------------|
A|----------------------------------------------------------------------------------------------------------|
E|----------------------------------------------------------------------------------------------------------|


--------------------------------
05:23
  CLASSICAL GUITAR
  GUITAR 1
e|--------------------2---5--------12--------10-------8---------------------------------|
B|-3-----3---5---6----------------------------------------------8-----------------------|
G|--------------------------------------------------------------------------------------|
D|--------------------------------------------------------------------------------------|
A|--------------------------------------------------------------------------------------|
E|--------------------------------------------------------------------------------------|
 |ELECTRIC DISTORTED                                                                    |
 |GUITAR 2                                                                              |
e|------------------------------------------------|------------------|------------------|
B|------------------------------------------------|------------------|------------------|
G|-------7------s------------7-------------h-p----|-------5--------5-|------------------|
D|-------------5\7-5-7---------5-7--5---5-5-7-5---|------------------|-------7--------7-|
A|-5-5-5---5-5---------5-5-5----------8---------8-|-3-3-3---3-3--3---|------------------|
E|------------------------------------------------|------------------|-5-5-5---5-5-5----|



05:31
  ELECTRIC CLEAN - Acumpanied by BASS
  GUITAR 1                      s
e|---s--------------15-17-15--17\20-18-17--15----15~~~~~-|--------|
B|-22\-18-17-15--18---------------------------18---------|--------|
G|-------------------------------------------------------|--BASS--|
D|-------------------------------------------------------|--------|
A|-------------------------------------------------------|--------|
E|-------------------------------------------------------|--------|
        
     h                                s
e|-17-18-17---------------15-17-15--17\20-18-17--15-------|--------|
B|-----------18-17-15--18---------------------------18-17-|--------|
G|--------------------------------------------------------|--BASS--|
D|--------------------------------------------------------|--------|
A|--------------------------------------------------------|--------|
E|--------------------------------------------------------|--------|

                         p      s        h  p
e|---s--------------15-17-15--17\20-18-17-18-17--15----15-|--------|
B|-22\-18-17-15--18---------------------------------18----|--------|
G|--------------------------------------------------------|--BASS--|
D|--------------------------------------------------------|--------|
A|--------------------------------------------------------|--------|
E|--------------------------------------------------------|--------|

     h     s                         s 
e|-17-18-15\17---------------15-17-15\20-18-17--15--------|--------|
B|--------------18-17-15--18-----------------------18-17--|--------|
G|--------------------------------------------------------|--BASS--|
D|--------------------------------------------------------|--------|
A|--------------------------------------------------------|--------|
E|--------------------------------------------------------|--------|

            h
e|--------13-15-13~~-|
B|-17~~~~------------|
G|-------------------|
D|-------------------|
A|-------------------|
E|-------------------|


--------------------------------
06:06
  ELECTRIC CLEAN
  GUITAR 1                                               s        h     h  p
e|-------------------------------s--------|-20-18-17-|-17\-12-|-13-15-13-15-13~~~~-|
B|--------------------15-15-18-18\20~~~~~-|----------|--------|--------------------|
G|----------------------------------------|----------|--------|--------------------|
D|----------------------------------------|----------|--------|--------------------|
A|----------------------------------------|----------|--------|--------------------|
E|----------------------------------------|----------|--------|--------------------|
 |ELECTRIC DISTORTED                                                               |
 |GUITAR 2                                                                         |
e|------h----b-17--rb----|---------------------------------------------------------|
B|----15-17-17----17--15-|---------------------------------------------------------|
G|-14--------------------|---------------------------------------------------------|
D|-----------------------|---------------------------------------------------------|
A|-----------------------|---------------------------------------------------------|
E|-----------------------|---------------------------------------------------------|


  ELECTRIC CLEAN
  GUITAR 1                               s
e|-----------------------------------|-15\20-18-17---------------|
B|-----------------------------------|---------------------------|
G|-----------------------15-17~~~~~~-|---------------------------|
D|--------------------14-------------|---------------------------|
A|-----------------------------------|---------------------------|
E|-----------------------------------|---------------------------|
 |ELECTRIC DISTORTED                                             |
 |GUITAR 2                                                       |
e|---h----b-17--rb-----------b-------|-----rbp-----br------------|
B|-15-17-17----17--15----15-15~~~~~~-|----15--13--15-----------s-|
G|--------------------14-------------|---------------14--12-14-\-|
D|-----------------------------------|---------------------------|
A|-----------------------------------|---------------------------|
E|-----------------------------------|---------------------------|


--------------------------------
06:33
  ELECTRIC FUZZY
  GUITAR 1
   Em                C             Am          Em
e|----s-------s-------------|--h----b-r------b----------s-|
B|-11-\-8~~--8\11-13-11-8~~-|-8-11-11---8--11--11~~~--11\-|
G|--------------------------|-----------------------------|
D|--------------------------|-----------------------------|
A|--------------------------|-----------------------------|
E|--------------------------|-----------------------------|

06:46 
   D              Em            C                   D
e|--s----------------------|-----------------h--p---------------|
B|-6\10------8-10-11-------|-11-11------11-11-13-11-10----10----|
G|------10~~----------7~~~-|-------10~~----------------------10-|
D|-------------------------|---------------------------10-------|
A|-------------------------|------------------------------------|
E|-------------------------|------------------------------------|

06:58 - 
  ACOUSTIC STRUMMING - CAPO 3rd FRET
        Em            C             Am          Em
e|----------------s----------|--h----b-r------b-------|
B|-8-10-11-8~~--11\13-11-8~~-|-8-11-11---8--11--11~~~-|
G|---------------------------|------------------------|
D|---------------------------|------------------------|
A|---------------------------|------------------------|
E|---------------------------|------------------------|

      D                 Em               C                   D
e|------h--p--s------------------|---h----------------h--p----------------|
B|-11-10-11-10\-6--8-10-11-------|-11-13-11--------11--13-11-10-----10----|
G|--------------------------7~~~-|----------10~~~~---------------------10-|
D|-------------------------------|-------------------------------10-------|
A|-------------------------------|----------------------------------------|
E|-------------------------------|----------------------------------------|


--------------------------------
07:23 - ACOUSTIC STRUMMING - CAPO 3rd FRET 
                                            
  ELECTRIC FUZZY
  GUITAR 1   
   Bm             Em               Bm             Am           
e|--s---------------s------------|--s---------h------------------------|
B|-8\10------8-10-10\13-11--10-8-|-8\10------8-10-8~~~~~~~~~~~~~~~~~---|
G|------10~~---------------------|------10~~---------------------------|
D|-------------------------------|-------------------------------------|
A|-------------------------------|-------------------------------------|
E|-------------------------------|-------------------------------------|
 |GUITAR 2                                                             |
 |ELECTRIC DISTORTED                                                   |
 |                 s                                               h   |
e|-17------17-18-18\20-18--17-15-|-17-------------s--------20-22-20-22-|
B|----18~~-----------------------|----18--18-18-18\20--20--------------|
G|-------------------------------|-------------------------------------|
D|-------------------------------|-------------------------------------|
A|-------------------------------|-------------------------------------|
E|-------------------------------|-------------------------------------|

07:35
  ELECTRIC FUZZY
  GUITAR 1  
      G           D          
        s     h                 C             Bm
e|-8--10\-6--8-10-8---------s-----s-------h---------h--p------------------------------|
B|------------------10-11-11\13-11\-8~~-10-11-10~~-8-10-8--------8-10-----------------|
G|--------------------------------------------------------10--10----------------------|
D|------------------------------------------------------------------------------------|
A|------------------------------------------------------------------------------------|
E|------------------------------------------------------------------------------------|
 |GUITAR 2                                                                            |
 |ELECTRIC DISTORTED                                                                  |
 |   s                                                                         h      |
e|-22\18----h-----s----------p-----p-----s---------------s------h--p------18-20-22-20-|
B|--------13-15-15\18------18-15-18-15-18\20-16--18-20-20\22--20-22-20-18-------------|
G|--------------------17--------------------------------------------------------------|
D|------------------------------------------------------------------------------------|
A|------------------------------------------------------------------------------------|
E|------------------------------------------------------------------------------------|

07:48
  ELECTRIC FUZZY
  GUITAR 1 
   Em               C               Am               Em         D               Em
e|--s-----------------s------|-------b--rb----b-r------s-|--------s--------------b---br----------------------|
B|-8\11-8~~~~-11-13-11\-8~~~-|-8-11-11-11--8-11--11--11\-|-s-11-10\-6~~~~~-8-10-10--10-8--s------------------|
G|---------------------------|---------------------------|7\-----------------------------7\------------------|
D|---------------------------|---------------------------|---------------------------------------------------|
A|---------------------------|---------------------------|---------------------------------------------------|
E|---------------------------|---------------------------|---------------------------------------------------|
 |GUITAR 2                                                                                                   |
 |ELECTRIC DISTORTED                                                                                         |
 |                            br      b                     h     s                   b  br             s    |
e|-18-15--18-20-18--15|15-18-18--15--18-18--17--15----15-|15-18-17\-13-----13--15-17-17--17-15--18-20-18\-13-|
B|--------------------|----------------------------15----|--------------13-----------------------------------|
G|--------------------|----------------------------------|---------------------------------------------------|
D|--------------------|----------------------------------|---------------------------------------------------|
A|--------------------|----------------------------------|---------------------------------------------------|
E|--------------------|----------------------------------|---------------------------------------------------|

08:06
  ELECTRIC FUZZY
  GUITAR 1 
           G           C                 D
e|--s--------s----------------------------------|
B|-8\11-13-11\---------11----13----13----13~~~~-|
G|-------------10~~-10----10----10----10--------|
D|----------------------------------------------|
A|----------------------------------------------|
E|----------------------------------------------|
 |GUITAR 2                                      |
 |ELECTRIC DISTORTED                            |
 |         h                                 s  |
e|-18-18-20-22-20~~~-20~~~-20~~~-20~~~-20~~~~\--|
B|----------------------------------------------|
G|----------------------------------------------|
D|----------------------------------------------|
A|----------------------------------------------|
E|----------------------------------------------|


--------------------------------
08:14
  ACOUSTIC PICKING - CAPO 3rd FRET - Thanks to (Nspen1) for working the chords out for me in this section.
  GUITAR 1
  D
e|----------------------------------|This is all I could 
B|-----3---3---3--------3---3---3---|
G|---2---2---2---2----2---2---2---2-|Do for the picking 
D|-0----------------0---------------|
A|----------------------------------|The rest is just chords.
E|----------------------------------|

  CLASSICAL GUITAR
  GUITAR 2       08:18
                 A(sus2)                               F#m      E        D         E
e|-----------------------h--------|-----5----s----|----------h-----------------------|
B|-------------------8--6-8-6---8-|-------8-6\8-8-|-8----5--3-5-3---5--3-------6-5---|
G|---------------5------------7---|-5-5-----------|----5----------4------5-2-5-----7-|
D|--------------------------------|---------------|----------------------------------|
A|--------------------------------|---------------|----------------------------------|
E|--------------------------------|---------------|----------------------------------|

08:38
  CLASSICAL GUITAR
  GUITAR 2 
       A(sus2)                                           F#m       E              D         E
e|------------h-----------s--|-----5----s----|--h-p-s-----------h---------|--h-p-s------1-0---|
B|--h--5--8--6-8-6---5-6-6\8-|-------8-6\8-8-|-6-8-6\5------5--3-5-3----5-|-3-5-3\1---1-----3-|
G|-5-7-------------7---------|-5-5-----------|---------7-5-----------4----|---------2---------|
D|---------------------------|---------------|----------------------------|-------------------|
A|---------------------------|---------------|----------------------------|-------------------|
E|---------------------------|---------------|----------------------------|-------------------|

08:57
  CLASSICAL GUITAR
  GUITAR 2  
       D         Amaj7     D            E          D         Amaj7      D             E
    s         h                     s         h p                                 s
e|-3\5-5--5--7-8-7---|-----5-8-8--10\12-10-|-7-8-7-5--8--5-8-7-------h--5--8-8--10\12-10-|
B|-----------------8-|-5-8-----------------|-------------------8-5--5-8------------------|
G|-------------------|---------------------|---------------------------------------------|
D|-------------------|---------------------|---------------------------------------------|
A|-------------------|---------------------|---------------------------------------------|
E|-------------------|---------------------|---------------------------------------------|

09:17
  CLASSICAL GUITAR
  GUITAR 2
   A(sus2)                    s                    F#m      E          D         E
e|--------h------------|-----5\-------s--|--p------------h---------|---------1-0---|
B|----8--6-8-6---5-6-8-|--------8--6-6\8-|-8-6--p----5--3-5-3----5-|-3-1---1-----3-|
G|-5-----------7-------|-5-5-------------|-----9-7-5----------4----|-----2---------|
D|---------------------|-----------------|-------------------------|---------------|
A|---------------------|-----------------|-------------------------|---------------|
E|---------------------|-----------------|-------------------------|---------------|

09:36
  CLASSICAL GUITAR
  GUITAR 2 
       D         Amaj7                      D                        E
    s         h      h p              h h      h   h p           s
e|-3\5-5--5--7-8-7--5-7-5---5-7-8-10-7-8-10-8-7-8-5-7-5------8-10\12-10-|
B|------------------------8-----------------------------8-10------------|
G|----------------------------------------------------------------------|
D|----------------------------------------------------------------------|
A|----------------------------------------------------------------------|
E|----------------------------------------------------------------------|

09:46
  CLASSICAL GUITAR
  GUITAR 2
       D         Amaj7      D             E    E
    p         h                       s       09:55        s
e|-8-7-5--8--7-8-7------5-7-8--8--8-10\12-10-|-10--8-7----8\10-8-7--5-8------|
B|-----------------8--8----------------------|---------10---------------8----|
G|-------------------------------------------|-----------------------------7-|
D|-------------------------------------------|-------------------------------|
A|-------------------------------------------|-------------------------------|
E|-------------------------------------------|-------------------------------|


--------------------------------
10:03
  CLASSICAL GUITAR
e|-----------------8--7-5----------|-----------------------8--7-5--h-p------|-------|
B|-8--5-6-8--5-6-8--------8--6-5---|-5-6-8--5--6--8--5-6-8--------6-8-6-5---|-------|
G|-------------------------------7-|--------------------------------------7-|-------|
D|---------------------------------|----------------------------------------|-5-5-5-|
A|---------------------------------|----------------------------------------|-------|
E|---------------------------------|----------------------------------------|-------|

10:22
e|--s----------------------13-12-10-------------------------|
B|-8\-10----8-10--10-11-13----------13--11-10-8-------------|
G|-------10---------------------------------------10-9-7----|
D|-------------------------------------------------------10-|
A|----------------------------------------------------------|
E|----------------------------------------------------------|

10:32                       s 
e|-------8--------8--------8\13-12-10-8----------|
B|-10-11----10-11----10-11---------------11-10-8-|
G|-----------------------------------------------|
D|-----------------------------------------------|
A|-----------------------------------------------|
E|-----------------------------------------------|

10:42         you need a cut away classical guitar :)
    s
e|-8-10-10--------------------18-17-15-13-----------|
B|---------11-13-15--15-16-18--------------16-15-13-|
G|--------------------------------------------------|
D|--------------------------------------------------|
A|--------------------------------------------------|
E|--------------------------------------------------|

10:51
e|------------------------------18-17-15-13-----------|------------|
B|-13-15-16--15-16-18--15-16-18--------------16-15-13-|-11-10-8----|
G|----------------------------------------------------|---------10-|
D|----------------------------------------------------|------------|
A|----------------------------------------------------|------------|
E|----------------------------------------------------|------------|


--------------------------------
11:02
  ELECTRIC CLEANISH ECHOEY
e|------------------------------------------------|
B|-------------------------13-12-10---------------|
G|--s-12--9-10-12--9-10-12----------12--10-9-7~~~-|
D|-5\---------------------------------------------|
A|------------------------------------------------|
E|------------------------------------------------|


e|-----------------------------------------------------|
B|--h--h----------b-r----h--h---13-12-10---------------|
G|-9-10-12--9-10-10--9--9-10-12----------12--10-9-7~~~-|
D|-----------------------------------------------------|
A|-----------------------------------------------------|
E|-----------------------------------------------------|

11:21
e|--------------------------13-12-10-----br--------------------------|
B|-----b---------b-10-11-13----------13-11-10--------p---------------|
G|-12-12--10-12-12----------------------------12---10-9---------12~~-|
D|------------------------------------------------------12-10~~------|
A|-------------------------------------------------------------------|
E|-------------------------------------------------------------------|


e|---h----b---------b-------s----13-12-10-----br------------|
B|-10-11-11--10-11-11--10-11\-13----------13-11-10--------s-|
G|-------------------------------------------------12~~~~~\-|
D|----------------------------------------------------------|
A|----------------------------------------------------------|
E|----------------------------------------------------------|


e|------------------------s---18-17-15-----br-------------|
B|--b---15-------15--15-16\18----------18-16-15---------b-|
G|-17------15-17--------------------------------17~~~~~---|
D|--------------------------------------------------------|
A|--------------------------------------------------------|
E|--------------------------------------------------------|


--------------------------------
11:52
  ELECTRIC CLEANISH
  GUITAR 1
e|----------------------------------------------------------------------------------------------------|
B|----------------------------------------------------------------------------------------------------|
G|--b------------------rb----------------s----------------br--------------------b---------------------|
D|-10~~~~~~-----------10----7-----------7\---14----------14----------12--------10~~~~~----------------|
A|----------------------------------------------------------------------------------------------------|
E|----------------------------------------------------------------------------------------------------|
 |ELECTRIC CLEAN                                                                                      |
 |GUITAR 2 - Palm Muted                                                                               |
e|------------------------|------------------------|-------------------------|------------------------|
B|------------8-8-8-8-----|------------------------|-------------6-6-6-6-----|------------------------|
G|----------7---------7---|------------7-7-7-7-----|-----------5---------5---|------------5-5-5-5-----|
D|-5--5-5-8-------------8-|----------7---------7---|-3-3-3-3-7-------------7-|----------5---------5---|
A|------------------------|-5--5-5-9-------------9-|-------------------------|-3--3-3-7-------------7-|
E|------------------------|------------------------|-------------------------|------------------------|


  ELECTRIC CLEANISH
  GUITAR 1
e|----------------------------------------------------------------------------------------------------|
B|--s------------------rb----------------s----------------br--------------------b---------------------|
G|-7\------12---------10----7-----------7\---14----------14----------12--------10~~~~~----------------|
D|----------------------------------------------------------------------------------------------------|
A|----------------------------------------------------------------------------------------------------|
E|----------------------------------------------------------------------------------------------------|
 |ELECTRIC CLEAN                                                                                      |
 |GUITAR 2 - Palm Muted                                                                               |
e|------------------------|------------------------|-------------------------|------------------------|
B|------------8-8-8-8-----|------------------------|-------------6-6-6-6-----|------------------------|
G|----------7---------7---|------------7-7-7-7-----|-----------5---------5---|------------5-5-5-5-----|
D|-5--5-5-8-------------8-|----------7---------7---|-3-3-3-3-7-------------7-|----------5---------5---|
A|------------------------|-5--5-5-9-------------9-|-------------------------|-3--3-3-7-------------7-|
E|------------------------|------------------------|-------------------------|------------------------|

12:07
  ELECTRIC CLEANISH
  GUITAR 1
e|--b-------------------br---------------s----------------br--------------------b---------------------|
B|-11~~~~~~~~----------11---8-----------8\---15----------15----------13--------11~~~~-----------------|
G|----------------------------------------------------------------------------------------------------|
D|----------------------------------------------------------------------------------------------------|
A|----------------------------------------------------------------------------------------------------|
E|----------------------------------------------------------------------------------------------------|
 |ELECTRIC CLEAN                                                                                      |
 |GUITAR 2 - Palm Muted                                                                               |
e|------------------------|------------------------|------------------------|-------------------------|
B|------------------------|------------8-8-8-8-----|------------------------|-------------6-6-6-6-----|
G|------------5-5-5-5-----|----------7---------7---|------------7-7-7-7-----|-----------5---------5---|
D|----------5---------5---|-5--5-5-8-------------8-|----------7---------7---|-3-3-3-3-7-------------7-|
A|-3--3-3-7-------------7-|------------------------|-5--5-5-9-------------9-|-------------------------|
E|------------------------|------------------------|------------------------|-------------------------|


  ELECTRIC CLEANISH
  GUITAR 1
e|--s-------------------br---------------s----------------br--------------------b----------------------|
B|-8\-----13-----------11---8-----------8\---15----------15----------13--------13~~~~------------------|
G|-----------------------------------------------------------------------------------------------------|
D|-----------------------------------------------------------------------------------------------------|
A|-----------------------------------------------------------------------------------------------------|
E|-----------------------------------------------------------------------------------------------------|
 |ELECTRIC CLEAN                                                                                       |
 |GUITAR 2 - Palm Muted                                                                                |
e|------------------------|------------------------|--------------------------|------------------------|
B|------------------------|------------8-8-8-8-----|--------------------------|------------------------|
G|------------5-5-5-5-----|----------7---------7---|--------------------------|------------7-7-7-7-----|
D|----------5---------5---|-5--5-5-8-------------8-|-------------8-8-8-8------|----------7---------7---|
A|-3--3-3-7-------------7-|------------------------|-----------8---------8----|-5--5-5-9-------------9-|
E|------------------------|------------------------|-6--6-6-10-------------10-|------------------------|


--------------------------------
12:22
  ELECTRIC DISTORTED
  GUITAR 1
e|--------------------------------------------|----------------------------------------------|
B|--------------------------------------------|----------------------------------------------|
G|--------------------------------------------|----------------------------------------------|
D|------5--------5---------5------------------|-----3---------------------3------------------|
A|--------------------------------------3-5-1-|--------------0-1-3-----------------0-1-1-3-1-|
E|-3--3---3-3--3---3-3-3-3---3--3-3-5-6-------|-1-1---1-1--1--------1-1-1---1-1--1-----------|
 |ELECTRIC CLEANISH                                                                          | 
 |GUITAR 2                                                                                   |
e|---------------------------------------b-------------------------------------------b-------|
B|--s------------------------------11---11------------------------------------------13-------|
G|-7\12~~~~~---------------------------------------------------------------------------------|
D|-------------------------------------------------------------------------------------------|
A|-------------------------------------------------------------------------------------------|
E|-------------------------------------------------------------------------------------------|


  ELECTRIC DISTORTED
  GUITAR 1
e|-----------------------------------------------|---------------------------------------|
B|-----------------------------------------------|---------------------------------------|
G|-----------------------------------------------|---------------------------------------|
D|-------5--------------------5------------------|-----3---------3-------3---------------|
A|-------------------3-5-------------------3-5-1-|-----------------------------0-1-1-3-1-|
E|-3-3-3---3-3-3-3-6------3-3---3-3--3-5-6-------|-1-1---1-1-1-1---1-1-1---1-1-----------|
 |ELECTRIC CLEANISH                                                                      |
 |GUITAR 2                                                                               |
e|---------------------------------------b-------------------------------------------b---|
B|---------------------------------11---11------------------------------------------13---|
G|-12~~~~~-------------------------------------------------------------------------------|
D|---------------------------------------------------------------------------------------|
A|---------------------------------------------------------------------------------------|
E|---------------------------------------------------------------------------------------|

  ELECTRIC DISTORTED
  GUITAR 1
e|--------------------------------------------|----------------------------------------------|
B|--------------------------------------------|----------------------------------------------|
G|--------------------------------------------|----------------------------------------------|
D|------5--------5---------5------------------|-----3---------------------3------------------|
A|--------------------------------------3-5-1-|--------------0-1-3-----------------0-1-1-3-1-|
E|-3--3---3-3--3---3-3-3-3---3--3-3-5-6-------|-1-1---1-1--1--------1-1-1---1-1--1-----------|
 |ELECTRIC CLEANISH                                                                          |
 |GUITAR 2                                                                                   |
e|---------------------------------------b-------------------------------------------b-------|
B|---------------------------------11---11------------------------------------------13-------|
G|-12~~~~~-----------------------------------------------------------------------------------|
D|-------------------------------------------------------------------------------------------|
A|-------------------------------------------------------------------------------------------|
E|-------------------------------------------------------------------------------------------|

  ELECTRIC DISTORTED
  GUITAR 1
e|-----------------------------------------------|------------------------------|
B|-----------------------------------------------|------------------------------|
G|-----------------------------------------------|------------------------------|
D|-------5--------------------5------------------|-----3---------3-------3------|
A|-------------------3-5-------------------3-5-1-|------------------------------|
E|-3-3-3---3-3-3-3-6------3-3---3-3--3-5-6-------|-1-1---1-1-1-1---1-1-1---1-1--|
 |ELECTRIC CLEANISH                                                             |
 |GUITAR 2                                                                      |
e|------------------------------------------------------------------------------|
B|---------------------------------11----b--------------------------------------|
G|-12~~~~~------------------------------10----------------------------------10--|
D|------------------------------------------------------------------------------|
A|------------------------------------------------------------------------------|
E|------------------------------------------------------------------------------|


--------------------------------
12:52
             THESE GREAT INDIAN SOUNDING DRUMS COME IN, EXCELLENT
            ******************************************************

14:53
  CLASSICAL GUITAR              G#m  G#m F#                   C#
e|-----------h----------|--------------------------|------------|----------|
B|-7--------7-9-7--p----|---7-9--9----9--11--------|---6-7-6--6-|--h---7---|
G|---8----8-------8-6-8-|-8------8----8--11---p----|-8--------6-|-8-10-----|
D|------8---------------|--------9----9--11--8-6-8-|----------6-|--------8-|
A|----------------------|-------10---10--9---------|----------4-|----------|
E|----------------------|--------------------------|------------|----------|

                                                  C#
e|----------------h-p-------h-p-p-----------p-------|--------s----h----|
B|-7--6-7------7-7-9-7-----6-7-6-4---4-6-7-6-4-6--6-|-------6\9--7-9-7-|
G|---------6-----------------------6--------------6-|-6-6-8------------|
D|----------------------6-------------------------6-|------------------|
A|------------------------------------------------4-|------------------|
E|--------------------------------------------------|------------------|

                                          F# F#
e|------h-------|-------------------|------------------h--------|-------------------------|----------|
B|---6-6-7-6----|--p-p----------6---|-9~~-11-11-----9-9-11-9----|---------------s---------|----------|
G|------------6-|-8-6-5---5-6-8---8-|-----11-11--11----------10-|----10-10-11-11\13-11----|-10-11-10-|
D|-8------------|-------8-----------|-----11-11-----------------|----------------------13-|----------|
A|--------------|-------------------|-----9--9------------------|-11----------------------|----------|
E|--------------|-------------------|---------------------------|-------------------------|----------|


--------------------------------
16:09
  ACOUSTIC FAST STRUMMING CAPO 4th FRET
Em   C   Am   Em   D   Em   C   D X2

Then solo comes in chords are above the solo

--------------------------------
16:40
  ELECTRIC DISTORTED                                       C
           Em   C          Am   Em         D  Em            h        D          Bm  Em
e|---------br----|----------------|------br-----|--------7-7-9-7------|-----br--br----|
B|---9-11-11-9~~-|-9-12-12-12-9~~-|---9-11------|---9-11--------------|-11-11-9-9-7~~-|
G|-8-------------|----------------|-8------11~~-|-8--------------11~~-|---------------|
D|---------------|----------------|-------------|---------------------|---------------|
A|---------------|----------------|-------------|---------------------|---------------|
E|---------------|----------------|-------------|---------------------|---------------|

   Bm     Am          G     D                  C            Bm
e|--br------|---------b------|------------------------|----------------------------|
B|-11-------|----14--14-12~~-|----11-11-12-14--br-----|----------------------------|
G|-----11~~-|-13-------------|-11-------------15-13~~-|--br--h--p--p-----h--p--p---|
D|----------|----------------|------------------------|-15-15-16-15-13-15-16-15-13-|
A|----------|----------------|------------------------|----------------------------|
E|----------|----------------|------------------------|----------------------------|
                 Em         C               Am       Em
                  rb        b          h    br     b     s
e|-------------|-18-16--19-19-19-16--16-19-19-16--19-19~~\-|
B|-------16-19-|-------------------------------------------|
G|-13-16-------|-------------------------------------------|
D|-------------|-------------------------------------------|
A|-------------|-------------------------------------------|
E|-------------|-------------------------------------------|
           D           Em             C        D
     h                                rb         h  p
e|-18-19--18-13--16-18-19--------19--18-13--19-19-21-19-18-|
B|------------------------16--16---------------------------|
G|---------------------------------------------------------|
D|---------------------------------------------------------|
A|---------------------------------------------------------|
E|---------------------------------------------------------|
                Em         C           Am
17:28           rb         rb      h     s       s
e|-------16-18-18-16-|-19-19-16--16-19-21\-16--16\21-|
B|-19-19-------------|-------------------------------|
G|-------------------|-------------------------------|
D|-------------------|-------------------------------|
A|-------------------|-------------------------------|
E|-------------------|-------------------------------|
                                                  
    Em                        h  p                   D
e|-...Extremly Fast....-h---11-14-11------p----------------|
B|---h--p--p-----h----12-14----------14-12-11---p----b-----|
G|-15-16-15-13-13-15--------------------------13-11-13~~~~-|
D|---------------------------------------------------------|
A|---------------------------------------------------------|
E|---------------------------------------------------------|
         Em           C                     D
17:38                 rb      h     h  p       s
e|-16-18-19------19--18-14--18-19-19-21-19-18~~\-|
B|----------16~~---------------------------------|
G|-----------------------------------------------|
D|-----------------------------------------------|
A|-----------------------------------------------|
E|-----------------------------------------------|
               Em         C                Am        Em
17:44                       p          h    rb     b       s  
e|-------16-18-19-16-|-19-21-19-16-|-16-19-19-16--19-19~~~~\-|
B|-19-19-------------|-------------|-------------------------|
G|-------------------|-------------|-------------------------|
D|-------------------|-------------|-------------------------|
A|-------------------|-------------|-------------------------|
E|-------------------|-------------|-------------------------|
            D                  Em          C        D
             h  p                          rb     b   s
e|-s---19--18-19-18----|-16-18-19-----19--18-14--18-18\14-|
B|-\17--------------19-|----------16----------------------|
G|---------------------|----------------------------------|
D|---------------------|----------------------------------|
A|---------------------|----------------------------------|
E|---------------------|----------------------------------|
               Em         C                Am         Em
18:00           rb          p               rb     b        s
e|-------16-18-18-16-|-19-21-19-16-|-16-19-19-16--19--19~~~~\-|
B|-19-19-------------|-------------|--------------------------|
G|-------------------|-------------|--------------------------|
D|-------------------|-------------|--------------------------|
A|-------------------|-------------|--------------------------|
E|-------------------|-------------|--------------------------|
       D               Em       C               D
                                rb      h  p       s
e|-19-18----|-16-18-19-----19--18-14--19-21-19-18~~\-|
B|-------19-|----------16----------------------------|
G|----------|----------------------------------------|
D|----------|----------------------------------------|
A|----------|----------------------------------------|
E|----------|----------------------------------------|
   Bm          Em                        Bm           Am
18:17            s             h  p  p            h 
e|-18----16-18-18\21-19~~~-|-18-19-18-16-18-----16-18-16~~~-|
B|----19-------------------|----------------19--------------|
G|-------------------------|--------------------------------|
D|-------------------------|--------------------------------|
A|-------------------------|--------------------------------|
E|-------------------------|--------------------------------|
       G           D         C              Bm.................................
    b  rb       br       h      s       h                                         s
e|-21-21--19-|-21--18--19-21-19-\-16--18-19-18--18--18--18--18--18--18-18-18-18-16\-|
B|-----------|----------------------------------------------------------------------|
G|-----------|----------------------------------------------------------------------|
D|-----------|----------------------------------------------------------------------|
A|-----------|----------------------------------------------------------------------|
E|-----------|----------------------------------------------------------------------|


--------------------------------
19:01
  ACOUSTIC GUITAR 1 - CAPO 4th FRET 
   Em            G                 Em           D                     Em
e|-----------0-|---0----------h-------------------------|------------------0-------|
B|---------0---|-3---0-------0-1-0----------0--------h--|-----------------0--------|
G|-------0-----|-------2-0-2--------------0-------0-0-2-|----------------0---------|
D|-----2-------|------------------------2-------4-------|---------------2----------|
A|---2---------|----------------------2-----------------|--------------2-----------|
E|-0-----------|--------------------0-------------------|------------ 0------------|
 |19:17                                                                            |
 |CLASSICAL GUITAR 2                                                     s         |
e|------------------------------------------------------|-----5-6-8-6-5-6\8--6-5-6-|
B|------------------------------------------------------|-6-8----------------------|
G|------------------------------------------------------|--------------------------|
D|------------------------------------------------------|--------------------------|
A|------------------------------------------------------|--------------------------|
E|------------------------------------------------------|--------------------------|

  ACOUSTIC GUITAR 1
  D       s 
e|---0-2-3\5-3-2-3-------------|--------------------------------------|
B|-3---------------0--h--------|--------------------------------------|
G|-2-----------------2-4-0-----|--------------------------------------|
D|-0-----------------------2-0-|-------------------p----2--p----------|
A|-----------------------------|------------------2-0-2---2-0---------|
E|-----------------------------|------------------------------0-------|
 |                                                                    |
 |CLASSICAL GUITAR 2                                                  |
e|--------------------------------------------5-----------------|-----|
B|----------------------------------------6-8---8-----6---------|---8-|
G|--------------------------------------5---------7-5---7-------|-7---|
D|--------------------------------5-7-8-------------------------|-----|
A|------------------------------8-------------------------------|-----|
E|--------------------------------------------------------------|-----|


19:33
Mandolin Comes In

------------------------------
   Gm   Em   D   Em  D   Em D  Em  D
  CLASSICAL GUITAR
                       s                                   s
e|--------------3--5-6-\-8-8--8-8--8-8----------------5-5-6\-8-6-5-6------------h--p---------3-|
B|-3--3-6--3--3-------------------------3---------6-8----------------------6-8-8-10-8----------|
G|-3-------3----------------------------3--7---5-------------8-7-5-7-7---5------------10---3---|
D|-5-------5----------------------------5----8-------------------------8-----------------------|
A|-5-------5----------------------------5------------------------------------------------------|
E|-3-------3----------------------------3------------------------------------------------3-----|


e|--h-p--------|
B|-3-4-3-------|
G|-------5-3-5-|
D|-------------|
A|-------------|
E|-------------|

20:59
e|-------------0-|
B|----------0----|
G|-------0-------|
D|----2----------|
A|-2-------------|
E|---------------|



ENJOY............


p   = Pull Off
h   = Hammer On
b   = Bend
rb  = Release Bend
br  = Bend Release
/   = Slide

            
            
Suggest correction
Creating personal tab
Creating personal tab
You can edit any tab online and save it as your Personal.

You can edit, replace or remove any tab part or add personal notes – all changes will be seen only by you.

Personal tabs can be accessed anytime from any device, even offline.
Learn more »
comments
print report bad tab
2 comments total.
+1 reply
bzaina2 10 Feb 19, 2017 12:53 AM

God damn, I just signed in to say: that is an outstanding job. Thank you very much!

guest
You may want to rate the tab now too:
select rating
Wanna post a correction for this tab? Suggest correction