Oops, an error
Loading. Please wait.

Tubular Bells Tab

version 1
version 1

Solo

Whole song

Interactive

18,188 views 12 this week
1 commentread comment
1 2 3 4 5
worth learning
x 4
add to favorites
launch autoscroll
font size
0
reset
how to read this tab
guitar tuner
Autoscroll
slow
fast
+/-
esc
set tempo
stop
Help us to improve Ultimate-Guitar.com Take our survey!
×
Difficulty
novice
Quite an easy solo - the first one I tabbed

Standard tuning

0 - - - - - - - - - 0 - - - 0 - - 0 5 4 5 4 0 0 - - - - 0 - - - - 0 - - - -
- 3 1 3 1 0 - 0 1 3 - 3 1 3 - 3 1 - - - - - - - 4 3 2 0 - 4 3 2 0 - 4 3 2 0 
- - - - - - 2 - - - - - - - - - - - - - - - - - - - - - - - - - - - - - - -
- - - - - - - - - - - - - - - - - - - - - - - - - - - - - - - - - - - - - -
- - - - - - - - - - - - - - - - - - - - - - - - - - - - - - - - - - - - - -
- - - - - - - - - - - - - - - - - - - - - - - - - - - - - - - - - - - - - -


0 - - - - - - - - - - - - - - - - - - - - 0 - - - 0 0 0 5 7
- 4 3 2 0 2 3 2 3 2 3 2 3 2 3 2 3 2 3 2 3 - 2 3 4 - - - - -
- - - - - - - - - - - - - - - - - - - - - - - - - - - - - - x2
- - - - - - - - - - - - - - - - - - - - - - - - - - - - - -
- - - - - - - - - - - - - - - - - - - - - - - - - - - - - -
- - - - - - - - - - - - - - - - - - - - - - - - - - - - - -

- - - - - - - 9 7 - - - - - - -- -- 13 12 10 13 12 10 12 16 12 12 11 
- - - - - - - - - - - - 6 8 8 10 13 -- -- -- -- -- -- -- -- -- -- -- 
- - - - - 1 4 - - 8 7 9 - - - -- -- -- -- -- -- -- -- -- -- -- -- --
- 1 2 4 4 - - - - - - - - - - -- -- -- -- -- -- -- -- -- -- -- -- --
4 - - - - - - - - - - - - - - -- -- -- -- -- -- -- -- -- -- -- -- -- 
- - - - - - - - - - - - - - - -- -- -- -- -- -- -- -- -- -- -- -- --



11 11 15 11 12 13 15 15 15 20 22
-- -- -- -- -- -- -- -- -- -- --
-- -- -- -- -- -- -- -- -- -- --
-- -- -- -- -- -- -- -- -- -- -- x2
-- -- -- -- -- -- -- -- -- -- --
-- -- -- -- -- -- -- -- -- -- --

Suggest correction
comments
print report bad tab
1 comment total.
0 reply
Gohex 319 wrote on June 4 2007, 11:51 am

Pretty nice mate good attempt for your first tab. Firstly you don't put spaces between the -'s :P

On the bit where it goes 4 3 2 0, I tried it and doesn't sound very good, try 4 3 2 1 four times without the e string, I find that fits :)

On the third row of music, where it goes

- - - - - - - 9 7 - - - - - - -- -- 13 12 10 13 12 10 12 16 12 12 11
- - - - - - - - - - - - 6 8 8 10 13 -- -- -- -- -- -- -- -- -- -- --
- - - - - 1 4 - - 8 7 9 - - - -- -- -- -- -- -- -- -- -- -- -- -- --
- 1 2 4 4 - - - - - - - - - - -- -- -- -- -- -- -- -- -- -- -- -- --
4 - - - - - - - - - - - - - - -- -- -- -- -- -- -- -- -- -- -- -- --
- - - - - - - - - - - - - - - -- -- -- -- -- -- -- -- -- -- -- -- --

I redid it to try and correct it, this is my version of it...

-----------------9-7-----------------------------------------16------
---------------------------------------18-17-15-18-17-15-16b---16----
------------4-6------6---------9-11-12-------------------------------
---1-2-4-6-------------9-11-12---------------------------------------
-4-------------------------------------------------------------------
---------------------------------------------------------------------

----15-------15------------------------------22b--22b-22br-
15b----15-14----14--15-16--17-18-19-20-21-22---------------
-----------------------------------------------------------
----------------------------------------------------------- repeat
----------------------------------------------------------- that
----------------------------------------------------------- twice =]


Other than that great first attempt mate, Mike Oldfield FTW

guest
You may want to rate the tab now too:
select rating
Wanna post a correction for this tab? Suggest correction