Oops, an error
Loading. Please wait.

Waldberg Tab

188 views 3 this week
no commentswrite comment
1 2 3 4 5
excellent!
x 3
add to favorites
launch autoscroll
font size
0
reset
how to read this tab
guitar tuner
Tab Pro tools
  • play this tab
  • loop segment
  • change instrument
  • show fretboard
  • metronome
Autoscroll
slow
fast
+/-
esc
set tempo
stop
Contributor
                                          Artist - Mike Oldfield
                                         ************************
                                        Song - Waldberg (The Peak)
                                       ****************************
                                           Album - The Complete
                                          **********************
                                           Tabbed By - Ayreon77
                                          **********************



INTRO - Bagpipes & Drums
******

There is chords, he kinda picks the notes on them,
is kinda hard to figure what hes doing, you can strum too it.

--------------------------------------------------
C G C
Either a Classical or Steel String Acoustic playing these notes
00:13            00:20
[--h-p-p----|---|-----------|-------------|-------]
[-5-6-5-3-5-|---|--h-p-p----|--h---p--6-5-|--p----]
[-----------|-7-|-5-7-5-3---|-5-7-9-5-----|-5-2---]
[-----------|---|---------5-|-------------|-----5-]
[-----------|---|-----------|-------------|-------]
[-----------|---|-----------|-------------|-------]


--------------------------------------------------
SECTION 1
**********
C F G C
This sound like a clean elec guitar or steal string acoustic
00:33
[-------------12----|-------------13----]\
[----------------13-|----------------15-] \
[-12-12-12-12-------|-14-14-14-14-------]  \
[-------------------|-------------------]   \
[-------------------|-------------------]    \
[-------------------|-------------------]     \
                                               \
                                               X2
                                               /
[-------------13----|-------------12----]     /
[----------------15-|----------------13-]    /
[-12-12-12-12-------|-12-12-12-12-------]   /
[-------------------|-------------------]  /
[-------------------|-------------------] /
[-------------------|-------------------]/


--------------------------------------------------
Distorted Electric Guitar
**************************
C G C
00:57                                               s               
[-15-15-1515-------------|-------------h-----p---15-\-|---h---15-15-]
[------------18-17-15----|-151515----15-17-18-15------|-17-18-------]
[---------------------17-|----------------------------|-------------]
[------------------------|--------17------------------|-------------]
[------------------------|----------------------------|-------------]
[------------------------|----------------------------|-------------]
    Fast
    h  p                                      s                      
[-15-17-15---------------|-------h-----p---15-\-]
[----------18-17-15---15-|-----15-17-18-15------]
[-------------------17---|----------------------]
[------------------------|-17-------------------]
[------------------------|----------------------]
[------------------------|----------------------]

                      h                            s              s 
[-15---h---15---h---15-20-17-15---p--p------h---15-\3--15---h---15\-]
[----17-18----17-18-------------18-17-15--17-18-----------17-18-----]
[-------------------------------------------------------------------]
[-------------------------------------------------------------------]
[-------------------------------------------------------------------]
[-------------------------------------------------------------------]

          h
[---h---15-20-17-15-------------h--p------]
[-17-18-------------18-17-15--15-17-15----]
[--------------------------------------17-]
[-----------------------------------------]
[-----------------------------------------]
[-----------------------------------------]


--------------------------------------------------
01:24
SECTION 1
**********

--------------------------------------------------
Distorted Electric Guitar
**************************
01:47
    s                                            s
[-3-\15-15-15-------------|---------------p---15-\-]
[-------------18-17-15----|-15----15-17-18-15------]
[----------------------17-|------------------------]
[-------------------------|----17------------------]
[-------------------------|------------------------]
[-------------------------|------------------------]

                p                                      s
[---h---15-15-20-15-------------|---------h-----p---15-\-|----15-------15-]
[-17-18-------------18-17-15----|-15----15-17-18-15------|-------17-18----]
[----------------------------17-|------------------------|----------------]
[-------------------------------|----17------------------|-17-------------]
[-------------------------------|------------------------|----------------]
[-------------------------------|------------------------|----------------]

          h                           s                 s
[-------15-20-17-15------------h---15-\-|----15-------15\-]
[-17-18-------------18-17-15-17-18------|-------17-18-----]
[---------------------------------------|-----------------]
[---------------------------------------|-17--------------]
[---------------------------------------|-----------------]
[---------------------------------------|-----------------]

          h
[-------15-20-17-15-------------h--p------]
[-17-18-------------18-17-15--15-17-15----]
[--------------------------------------17-]
[-----------------------------------------]
[-----------------------------------------]
[-----------------------------------------]

--------------------------------------------------
02:14
SECTION 1
**********

--------------------------------------------------
  C
[---]
[-5-]
[-5-]
[-5-]
[-3-]
[---]

--------------------------------------------------
02:38
SECTION 1 - play this to the end of the song.
**********

--------------------------------------------------
Distorted Electric Guitar
**************************
02:51 
  s       p     p      h  p  p  h       h  p  p  h   
[-\15---20-15-20-15-17--18-17-15-17-|-19-20-19-17-19-]
[-----------------------------------|----------------]
[-----------------------------------|----------------]
[-----------------------------------|----------------]
[-----------------------------------|----------------]
[-----------------------------------|----------------]
                                                 fade out
      b  b   rbp          b  b   rbp    b  rbp                h     h    h b
[----22-22-|-22-20-22-20-22-22-|-22-20-22--22-20----|--p---17-20-20-22-20-22]
[-20-------|-------------------|-----------------22-|22-20------------------]
[----------|-------------------|--------------------|-----------------------]
[----------|-------------------|--------------------|-----------------------]
[----------|-------------------|--------------------|-----------------------]
[----------|-------------------|--------------------|-----------------------]

           b   b  C
[-22~~~22-22--24----]
[-----------------5-]
[-----------------5-]
[-----------------5-]
[-----------------3-]
[-------------------]


Classic Mike Oldfield Song. Enjoy...........
comments
We did not receive enough feedback on this tab! Please rate:
print report bad tab
1 2 3 4 5
I want to post or [tab]
guest
You may want to rate the tab now too:
select rating
Please do not post tabs as comments. Select "correction" instead!