Oops, an error
Loading. Please wait.

Calgary tab

22 views 1 this week
no commentswrite comment
1 2 3 4 5
3 more votes to show rating
add to favorites
×
Save as Personal and add changes to this tab that will be seen only by you. Learn more ›
×
You can save this tab as Personal to edit and correct it or add notes. All changes will be seen only by you. Learn more »
launch autoscroll
font size
0
reset
how to read this tab
guitar tuner
edit
Autoscroll
slow
fast
+/-
esc
set tempo
stop
Author
Difficulty
[Intro]

e|------------------------|
B|---------1---1p0-----3--|
G|-----------------0------|
D|------2------------2----|x4
A|---3--------------------|
E|------------------------|


[Verse 1]

e|------------------------|------------------------|
B|---------1---1p0-----3--|--------1---1p0-----3---|
G|-----------------0------|----------------0-------|
D|------2------------2----|-----2------------2-----|x4
A|---3--------------------|--3---------------------|
E|------------------------|------------------------|
     Moved to Calgary
     Start a Christian band
     Live on loyalties
     Play in oil sands


[Chorus 1]

And it looks like

e|---------------------------|-----------------------|------------------------|
B|---1-----3-----1-----3-----|--1-----3-----1-----3--|--------1---1p0-----3---|
G|---2-----2-----2-----2-----|--1-----1-----1-----1--|----------------0-------|
D|------3-----3-----3-----3--|-----3-----3-----3-----|-----2------------2-----| 
A|---------------------------|-----------------------|--3---------------------|
E|---------------------------|-----------------------|------------------------|
     Everything you’ve          ever heard was          wrong


[Verse 2]

e|------------------------|------------------------|
B|---------1---1p0-----3--|--------1---1p0-----3---|
G|-----------------0------|----------------0-------|
D|------2------------2----|-----2------------2-----|x4
A|---3--------------------|--3---------------------|
E|------------------------|------------------------|
     Learn some melodies
     While your changing lanes
     Pick up honesty
     Take a scenic train


[Chorus 2]

e|---------------------------|-----------------------|------------------------|
B|---1-----3-----1-----3-----|--1-----3-----1-----3--|--------1---1p0-----3---|
G|---2-----2-----2-----2-----|--1-----1-----1-----1--|----------------0-------|
D|------3-----3-----3-----3--|-----3-----3-----3-----|-----2------------2-----|x2
A|---------------------------|-----------------------|--3---------------------|
E|---------------------------|-----------------------|------------------------|
     Everything you’ve          ever heard was          wrong
     Everything you’ve          ever heard was          wrong


[Musical Interlude]

e|--------------------|------------------------|
B|--------8----8------|-----8------8-----------|
G|---------------9----|-------9------9---------|
D|---8/10----------9--|--10------------10--9---|x2
A|--------------------|------------------------|
E|--------------------|------------------------|

e|---------------------------|-----------------------|------------------------|
B|---1-----3-----1-----3-----|--1-----3-----1-----3--|--------1---1p0-----3---|
G|---2-----2-----2-----2-----|--1-----1-----1-----1--|----------------0-------|
D|------3-----3-----3-----3--|-----3-----3-----3-----|-----2------------2-----|
A|---------------------------|-----------------------|--3---------------------|
E|---------------------------|-----------------------|------------------------|


[Verse 3]

e|------------------------|------------------------|
B|---------1---1p0-----3--|--------1---1p0-----3---|
G|-----------------0------|----------------0-------|
D|------2------------2----|-----2------------2-----|x4
A|---3--------------------|--3---------------------|
E|------------------------|------------------------|
     Wake up westwardly
     In your sister’s van
     Your philosophy
     Is money in your hand


[Chorus 3]

e|---------------------------|-----------------------|------------------------|
B|---1-----3-----1-----3-----|--1-----3-----1-----3--|--------1---1p0-----3---|
G|---2-----2-----2-----2-----|--1-----1-----1-----1--|----------------0-------|
D|------3-----3-----3-----3--|-----3-----3-----3-----|-----2------------2-----|x2
A|---------------------------|-----------------------|--3---------------------|
E|---------------------------|-----------------------|------------------------|
     Everything you’ve          ever heard was          wrong
     Everything you’ve          ever heard was          wrong

e|------------------------|-----------------------------|
B|---------1---1p0-----3--|--------1---1p0-----3----1---|
G|-----------------0------|----------------0--------0---|
D|------2------------2----|-----2------------2------2---|
A|---3--------------------|--3----------------------3---|
E|------------------------|-----------------------------|
So wrong,               so wrong



            
            
Suggest correction
Creating personal tab
Creating personal tab
You can edit any tab online and save it as your Personal.

You can edit, replace or remove any tab part or add personal notes – all changes will be seen only by you.

Personal tabs can be accessed anytime from any device, even offline.
Learn more »
Give kudos to tab author, rate the tab!
1 2 3 4 5
comments
print report bad tab
guest
You may want to rate the tab now too:
select rating
Wanna post a correction for this tab? Suggest correction