Oops, an error
Loading. Please wait.

Gaviota De Abril Tab

17 views 1 this week
no commentswrite comment
1 2 3 4 5
3 more votes to show rating
add to favorites
launch autoscroll
font size
0
reset
how to read this tab
guitar tuner
Autoscroll
slow
fast
+/-
esc
set tempo
stop
¿Qué es poesía?, dices mientras clavas
En mi pupila tu pupila azul;
¡Qué es poesía! ¿Y tú me lo preguntas?
Poesía... eres tú.

La poesía eres tú, te he dicho,
Porque la poesía es el sentimiento,
Y el sentimiento es la mujer.

                              Gustavo Adolfo Bécquer


Intro:
                                       X--------------------
1|---------0---------------------------1---0----------------||E
2|-----1-----3-1-0-----------0-0-1-----1-----1---1H3-1------||B
3|---0---0---------0---0-0H2-------2---2-2-----2-------2----||G
4|----------------------------------------------------------||d
5|-3--------------------------------------------------------||a
6|---------------3---3---------1-------3--------------------||e

  ---------------------------------------------------------X
1|---------0---------------------------1-1-1-1--3-----------||E
2|-1---------3-1-0-----------0-0-1-----1-1-1-1--3-----------||B
3|---0-------------0---0-0H2-------2---2-2-2-2--0-----------||G
4|-----2----------------------------------------------------||d
5|-3-----3--------------------------------------2-----------||a
6|---------------3---3---------1-------3-3-3-3--------------||e


C*     G         F           G - C*
Una mañana llegaste sin avisar,
          G     F             G - E - Am
En mi ventana mirabas sin hablar,
                  Em
Pensé que era un sueño,
               F          C - E - Am
Pensé que eras mi imaginación,
          Em             F          F/G - G*
Pero eras real lo sé por esta vibración.

C*        G           F              G - C*
Tus alas blancas arropaban mi habitación,
               G       F              G - E - Am
Con cierta ternura llegaste a mi corazón,
             Em           F           C - E - Am
Con tanta dulzura que no supe cómo hacer,
               Em         F           G - Esus4
Con tanta hermosura que dejo todo tú ser.

    E        Am  G           F
Yo que voy hacer si no te encuentro,
       G          G*        C
Si no tengo el calor de tu piel,
    E        Am       Em                   F
Yo que voy hacer sino tengo el valor de seguir
    G         G*     C*        G         F  X------X
Yo que voy hacer sin ti, mi gaviota de abril.

C*     G            F            G - C*
Y caminamos era un día de conversar
         G         F            G - E - Am
Y nos miramos sin nada que ocultar,
             Em          F         C - E - Am
Tu mano y la mía en una sola pude ver,
           Em          F          G - Esus4
Pero tuve miedo de perderte esta vez?

    E        Am  G           F
Yo que voy hacer si no te encuentro,
       G          G*        C
Si no tengo el calor de tu piel,
    E        Am       Em                   F
Yo que voy hacer sino tengo el valor de seguir
    G                C - Esus4 - E - D
Yo que voy hacer sin ti?

     A           G    F#
Y no sé qué sucedió volaste sin mí
        Bm         A              G
Y ahora que voy hacer si no te encuentro,
       A                    D
Si no tengo el calor de tu piel,
    F#       Bm       F#m                  G
Yo que voy hacer sino tengo el valor de seguir
    A                D
Yo que voy hacer sin ti?

   F#        Bm  A           G
Yo que voy hacer si no te encuentro,
       A                    D
Si no tengo el calor de tu piel,
   F#        Bm       F#m                  G
Yo que voy hacer sino tengo el valor de seguir
    A                D         A         G
Yo que voy hacer sin ti, mi gaviota de abril.

Final:
1|---------2-0h2p0-------------------------------3-2---0----||E
2|-----3-----------3-2---------0-2-2---3-0---0-------3---3--||B
3|---2---2-------------2---2-2-------0-----0---0-----------2||G
4|-0--------------------------------------------------------||d
5|-------------------0---0-----------------------0-0--------||a
6|---------------------------------3------------------------||e

1|---------2-0h2p0-------------------------------3---2------||E
2|-----3-----------3-2---------0-2-2---3-0---0-----------3--||B
3|---2---2-------------2---2-2-------0-----0---0---2---2---2||G
4|-0--------------------------------------------------------||d
5|-------------------0---0-----------------------0---0---0--||a
6|---------------------------------3------------------------||e

1|--------2-------------------------------------------------||E
2|--------3-------------------------------------------------||B
3|-2h4-2--2-------------------------------------------------||G
4|--------0-------------------------------------------------||d
5|----------------------------------------------------------||a
6|----------------------------------------------------------||e

ACORDES:
C*: 032013
F/G: 3XX211
G*: X2X033
Esus4: 022200

LA PARTE QUE ESTA ASI X-----X
SE TOCA LA PARTE MARCADA
DEL INTRO.

LA SAQUE DE UNA VERSION EN VIVO, SOLO LES DEJO EL INTRO
Y EL FINAL, IMPROVISEN UN POCO CON LOS ACORDES.
Suggest correction
Give kudos to tab author, rate the tab!
1 2 3 4 5
comments
print report bad tab
guest
You may want to rate the tab now too:
select rating
Wanna post a correction for this tab? Suggest correction