Oops, an error
Loading. Please wait.

La Vida Es Nada Tab

11 views 1 this week
no commentswrite comment
1 2 3 4 5
3 more votes to show rating
add to favorites
launch autoscroll
font size
0
reset
how to read this tab
guitar tuner
×
Best way to learn
"La Vida Es Nada"
Autoscroll
slow
fast
+/-
esc
set tempo
stop
Saludos Nuevamente. Aqui Les Dejo La Transcripcion De
La Vida Es Nada. Espero Que Sea De Su Agrado :D
Cualquier Comentario O Sugerencia Me Pueden Escribir A
fjcr1018@

--------------------------------------------------------------------------

INTRO


 ||--------------------------------------------5----3----0---------|
 ||----1----3----5----0----1----3----1----3-------------------3----|
 ||----------------------------------------------------------------|
 ||----------------------------------------------------------------|
 ||----------------------------------------------------------------|
 ||----------------------------------------------------------------|


 ||--------------------------------------------5----3----0---------|
 ||----1----3----5----0----1----3----1----3------------------------|
 ||----------------------------------------------------------------|
 ||----------------------------------------------------------------|
 ||----------------------------------------------------------------|
 ||----------------------------------------------------------------|


[ch]Am[/ch]
Aveces camino a tientas por mí mismo
   [ch]F[/ch]
tratando de entender aquel juego
     [ch]C[/ch]
de palabras que era casi un silencio.
[ch]G                               LAm[/ch]
Sabía que a la larga terminaría
             [ch]F                    SOL[/ch]
solo, sin la magia macabra de tu cinismo.


             [ch]Am[/ch]
Pobre de mis ojos que no soportaron
    [ch]F[/ch]
la epifanía de encontrarte.
      [ch]C[/ch]
Qué horror esta suerte de los mortales
      [ch]G                            LAm[/ch]
que sabemos que entre nacer y morir
       [ch]F                SOL[/ch]
lo que hay es un dolor insoportable.


                [ch]Am[/ch]
Y ahora en la orfandad de mi memoria,
 [ch]F[/ch]
busco a rabiar una treta
          [ch]C                            SOL[/ch]
que me permita rehacer el libreto y la trama.


             [ch]Am[/ch]
Siempre dije que la música me salvaba
      [ch]F[/ch]
pero ahora frente a este piano
      [ch]C                            SOL[/ch]
sólo leo una perversa broma en el pentagrama.


   [ch]C[/ch]
Despues de que te marcharas
    [ch]G[/ch]
descubrí que éramos iguales,
     [ch]Am[/ch]                              [ch]F[/ch]
dos locos en un mismo grito de independencia.
           [ch]C[/ch]
Y es que tenemos el alma hecha
        [ch]G[/ch]
de la misma materia que las piedras.
       [ch]Am[/ch]                      [ch]F[/ch]
No hay más que decir, hagamos silencio.
     [ch]C                [ch]G[/ch]                LAm[/ch]
Con una imposibilidad basta para la inexistencia,
              [ch]F[/ch]
para la inexistencia.


||--------------------------------------------5----3----1----0----
||----1----3----5----0----1----3----1----3------------------------
||----------------------------------------------------------------
||----------------------------------------------------------------
||----------------------------------------------------------------
||----------------------------------------------------------------


||------------------------------------------------------------5----3--
||----3----1----3----1-----3----5----0----1----3----1----3------------
||--------------------------------------------------------------------
||--------------------------------------------------------------------
||--------------------------------------------------------------------
||--------------------------------------------------------------------


[ch]Am[/ch]
Tengo la vida y la risa archivadas
        [ch]F[/ch]                  [ch]C[/ch]
en un viejo rincón junto a cosas
   [ch]G       LAm[/ch]        [ch]F[/ch]
bastardas de mi dolor.
[ch]Am[/ch]
Oculto recuerdos que invento
   [ch]F                           [ch]C[/ch]         SOL[/ch]
en un lugar rastrero dentro de mi cuerpo.
   [ch]Am[/ch]                                [ch]F[/ch]
Mi pecho es una cueva donde guardo de todo
              [ch]C           SOL[/ch]
menos el corazón, menos el corazón.


   [ch]C[/ch]
Despues de que te marcharas
    [ch]G[/ch]
descubrí que éramos iguales,
     [ch]Am[/ch]                              [ch]F[/ch]
dos locos en un mismo grito de independencia.
           [ch]C[/ch]
Y es que tenemos el alma hecha
        [ch]G[/ch]
de la misma materia que las piedras.
       [ch]Am[/ch]                      [ch]F[/ch]
No hay más que decir, hagamos silencio.
     [ch]C                [ch]G[/ch]                LAm[/ch]
Con una imposibilidad basta para la inexistencia,
              [ch]F[/ch]
para la inexistencia.


[ch]Am[/ch]
Aqui acaba este juego
           [ch]F[/ch]                     [ch]C[/ch]
en el que amarte es el funeral de mi deseo.
          [ch]G[/ch]
Que no cambie el libreto,
        [ch]Am[/ch]
acepto como un condenado a muerte
       [ch]F[/ch]
ser el personaje de mi drama.

       [ch]C                           SOL[/ch]
Hoy me rio con los dientes de la perversa broma
        [ch]Am[/ch]
de mi pentagrama:


[ch]C                     [ch]G   [ch]Am   [ch]F   DO[/ch]   SOL[/ch]   LAm[/ch]   FA[/ch]
Dicen que la vida...
[ch]C                 [ch]G             LAm[/ch]        FA[/ch]
Dicen que la vida, Uh  que la vida es nada.
[ch]C[/ch]
Dicen que la vida...
Suggest correction
Give kudos to tab author, rate the tab!
1 2 3 4 5
comments
print report bad tab
guest
You may want to rate the tab now too:
select rating
Wanna post a correction for this tab? Suggest correction