Oops, an error
Loading. Please wait.

Survival tab

7 views 1 this week
no commentswrite comment
1 2 3 4 5
3 more votes to show rating
add to favorites
×
Save as Personal and add changes to this tab that will be seen only by you. Learn more ›
×
You can save this tab as Personal to edit and correct it or add notes. All changes will be seen only by you. Learn more »
launch autoscroll
font size
0
reset
how to read this tab
guitar tuner
edit
Autoscroll
slow
fast
+/-
esc
set tempo
stop
[Intro]
e|-0------|-2------|-0----0--|-0----------|
B|-0------|-2------|-0----2--|-0----------|
G|-1------|-2------|-2----2--|-2----------|
D|-2------|-2------|-1----2--|-2----2-----|
A|-2----2-|-4------|-2----0--|-2--4---4-2-|
E|-0--4---|-x------|-x----x--|-0----------|

[Verse]
You're so    beatuiful      you make me believe 
e|-0-------|-2----------|-0----------|-0----------|
B|-0-------|-2----------|-0----------|-0----------|
G|-1-------|-2----------|-2----------|-2----------|
D|-2-------|-2----------|-1----------|-2----------|
A|-2-----2-|-4----------|-2----------|-2----------|
E|-0---4---|-x----------|-x----------|-0----------|

That the human race is going to be OK         Even
e|-0---------------|-2----------------|-0------------|
B|-0---------------|-2----------------|-0--------4---|
G|-1---------------|-2----------------|-2------------|
D|-2---------------|-2----------------|-1------------|
A|-2-------------2-|-4----------------|-2------------|
E|-0-----------4---|-x----------------|-x------------|

 If we're not. It feels right to believe we deserve to be    O--K
e|-0-----------------------|-0------------|-0--------------|----0------|
B|-0-----------------------|-2------------|-0--------------|----1------|
G|-2-----------------------|-2------------|-1--------------|----2------|
D|-2-----------------------|-2------------|-2-----------2--|----2------|
A|-2---------------------4-|-0----------4-|-2---------4----|-4--0------|
E|-0-----------------------|-x------------|-x--------------|-----------|

      To survive in here  life must go on.               Through you I can really
e|-0--------------|-0------------|-0----------|-0--------0--------|
B|-2--------------|-0------------|-2----------|-3--------3--------|
G|-2--------------|-1------------|-2----------|-2--------2--------|
D|-2--------------|-2------------|-2----------|-2--------2--------|
A|-0-----------4--|-2---------2--|-0----------|-0--------0--------|
E|-x--------------|-0-------4----|-x----------|-x--------x--------|

 love the world.
e|-0-----------|
B|-0-----------|
G|-1-----------|
D|-2-----------|
A|-2-----------|
E|-0-----------|

[Solo]
E            A/C#          B7       Esus4       E              
e|-0------4-|-4-4-4-2/3\2-|-0----4-|-2-0-2-----|-----|
B|----------|-------------|--------|-------2-2-|-0-2-|
G|----------|-------------|--------|-----------|-----|
D|----------|-------------|--------|-----------|-----|
A|----------|-------------|--------|-----------|-----|
E|----------|-------------|--------|-----------|-----|
   A/C#                  Esus4 
e|-0---------------0---|-----------------|
B|---4-2-2-0-0---------|---2-------0-----|
G|-------------2-2---1-|-----------------|
D|---------------------|-4---2-2-1-------|
A|---------------------|-------------4-2-|
E|---------------------|-----------------|

[Verse]
You're so    beatuiful you make believe 
e|-0-------|-2---------|-0------|-0----------|
B|-0-------|-2---------|-0------|-0----------|
G|-1-------|-2---------|-2------|-2----------|
D|-2-------|-2---------|-1------|-2----------|
A|-2-----2-|-4---------|-2------|-2----------|
E|-0---4---|-x---------|-x------|-0----------|

That the human race is going to be OK         Even
e|-0---------------|-2----------------|-0------------|
B|-0---------------|-2----------------|-0--------4---|
G|-1---------------|-2----------------|-2------------|
D|-2---------------|-2----------------|-1------------|
A|-2-------------2-|-4----------------|-2------------|
E|-0-----------4---|-x----------------|-x------------|

If we're not. It feels right to believe we deserve to be     O--K
e|-0-------------------|-0-----------------|-0--------------|----0------|
B|-0-------------------|-2-----------------|-0--------------|----1------|
G|-2-------------------|-2-----------------|-1--------------|----2------|
D|-2-------------------|-2-----------------|-2-----------2--|----2------|
A|-2-----------------4-|-0---------------4-|-2---------4----|-4--0------|
E|-0-------------------|-x-----------------|-x--------------|-----------|

      To survive in here  life must go on.             Through you I can really 
e|-0--------------|-0------------|-0------------|-0-------0--------|
B|-2--------------|-0------------|-2------------|-3-------3--------|
G|-2--------------|-1------------|-2------------|-2-------2--------|
D|-2--------------|-2------------|-2------------|-2-------2--------|
A|-0-----------4--|-2---------2--|-0------------|-0-------0--------|
E|-x--------------|-0-------4----|-x------------|-x-------x--------|

   love the world.                        Through you I can really
e|-0------------|--------------0--|-----0----------|
B|-0------------|--------------3--|-----2----------|
G|-1------------|--------------2--|-----2----------|
D|-2------------|-------2------2--|---2-2----------|
A|-2------------|-----4---4-2--0--|-4---0----------|
E|-0------------|--------------x--|-----x----------|

 love the world.
e|-0--------------|
B|-0--------------|
G|-1--------------|
D|-2--------------|
A|-2--------------|
E|-0--------------|



************************************

| x  Dead note
| /  Slide up
| \  Slide down
| /C#                  Esus 

************************************

            
            
Suggest correction
Creating personal tab
Creating personal tab
You can edit any tab online and save it as your Personal.

You can edit, replace or remove any tab part or add personal notes – all changes will be seen only by you.

Personal tabs can be accessed anytime from any device, even offline.
Learn more »
Give kudos to tab author, rate the tab!
1 2 3 4 5
comments
print report bad tab
guest
You may want to rate the tab now too:
select rating
Wanna post a correction for this tab? Suggest correction