Oops, an error
Loading. Please wait.

Chromazone tab

version 1
version 1

Whole song

  • This is a highly accurate tab. Probably the most accurate on the web.

Interactive

97 views 9 this week
no commentswrite comment
1 2 3 4 5
3 more votes to show rating
add to favorites
×
Save as Personal and add changes to this tab that will be seen only by you. Learn more ›
×
You can save this tab as Personal to edit and correct it or add notes. All changes will be seen only by you. Learn more »
launch autoscroll
font size
0
reset
how to read this tab
guitar tuner
backing track
0:00
0:00
edit
Autoscroll
slow
fast
+/-
esc
set tempo
stop
About this tab version
This is a highly accurate tab. Probably the most accurate on the web. Was this info helpful? Yes No
Standard tuning

Due to the fact that this song is one long solo, there is no strumming pattern.
Listen to the recording for arrangemen.


(Guitar)
e|---------------------|-------------------------------|
B|---------------------|-----6-8-----6-----6-----------|
G|-------------------6-|*--9-------9-----9---9-8-7-6-8-|
D|---------------6-8---|*------------------------------|
A|---------------------|-------------------------------|
E|---------------------|-------------------------------|

e|--------------------------------|-------------------------------|
B|----6-8-----6-------------6-7---|---6----6-6----6-------------6-|
G|--9-------9---9-8-7-6-8-9-----9-|------9------9---9-8-7-6-8-9---|
D|--------------------------------|-------------------------------|
A|--------------------------------|-------------------------------|
E|--------------------------------|-------------------------------|

e|-----------------------------|------------------------------|
B|--8---6----------------------|--8---7---6-------------------|
G|----9---9-8-7-6-----------6-*|----9---9---9-8-7-6---------6-|
D|----------------------6-8---*|------------------------6-8---|
A|-----------------------------|------------------------------|
E|-----------------------------|------------------------------|

e|-------------------------------|--------------------------------|
B|-----8-------6-----6-----------|--6-8-------6-------------6-7---|
G|*--9---6---9-----9---9-8-7-6-9-|------6---9---9-8-7-6-8-9-----9-|
D|*------------------------------|--------------------------------|
A|-------------------------------|--------------------------------|
E|-------------------------------|--------------------------------|

e|-------------------------------|-----------------------------|
B|---6----6-6----6-------------6-|--8---6----------------------|
G|------9------9---9-8-7-6-8-9---|----9---9-8-7-6-----------6-*|
D|-------------------------------|----------------------6-8---*|
A|-------------------------------|-----------------------------|
E|-------------------------------|-----------------------------|

e|-------------------------------------|--------------------------------------|
B|--8---7---6-------------------8-9-10-|---11-----------------------------9---|
G|----9---9---9-8-7-6-8-9-10-11--------|*-----9-11-9-------9------------9---9-|
D|-------------------------------------|*------------11-11---11-9~--11--------|
A|-------------------------------------|--------------------------------------|
E|-------------------------------------|--------------------------------------|

e|----------------------------------12--9-|-----------------------------------|
B|----------------------------------------|-------------------------------9---|
G|--11h9-11-9-------9---------------------|---9-11-9-------9------------9---9-|
D|------------11-11---11-9-9-10-11--------|----------11-11---11-9~--11--------|
A|----------------------------------------|-----------------------------------|
E|----------------------------------------|-----------------------------------|

e|------------------------------------------|
B|----------------------------------8-9-10--|
G|--11h9-11-9-------9------9-10-11---------*|
D|------------11-11---11-9-----------------*|
A|------------------------------------------|
E|------------------------------------------|

e|----------------------------------------|------------------------------|
B|----------------------------------------|----6-8-----6-----6-----------|
G|--11h9-11-9-------9-------------------6-|--9-------9-----9---9-8-7-6-8-|
D|------------11-11---11-10-10-9-8--6-8---|------------------------------|
A|----------------------------------------|------------------------------|
E|----------------------------------------|------------------------------|

e|--------------------------------|-------------------------------|
B|----6-8-----6-------------6-7---|---6----6-6----6-------------6-|
G|--9-------9---9-8-7-6-8-9-----9-|------9------9---9-8-7-6-8-9---|
D|--------------------------------|-------------------------------|
A|--------------------------------|-------------------------------|
E|--------------------------------|-------------------------------|

e|------------------|------------------------------|---------------------------|
B|--7---6-----------|------------------------------|---------------------------|
G|----9---9-8-7-6-4-|--5-5--4-5-5--4-5-5--4-5-5--4-|--5-5--4-5-5--4-5~----5--5-|
D|------------------|------------------------------|---------------------------|
A|------------------|------------------------------|---------------------------|
E|------------------|------------------------------|---------------------------|

e|-------------------------|----------------------------|-----------------------|
B|-------------------------|----------------------------|------------------5----|
G|*---5--------5------5--5-|---5----------7-8-9---8-7-5-|---5---------5---------|
D|*-----4--7---------------|-----4--7--7----------------|-----4--7--------------|
A|-------------------------|----------------------------|-----------------------|
E|-------------------------|----------------------------|-----------------------|

e|-------------------------|--------------------------|
B|--6----------------------|--6-----------------------|
G|-------8/7-5~------5--5-*|-------8/7-5------8-8-8-8-|
D|------------------------*|--------------------------|
A|-------------------------|--------------------------|
E|-------------------------|--------------------------|

e|-------------------------------|-------------------------|
B|-------------------------------|-------------------------|
G|------------8-----11/10h8-10-8-|-----------------8-8-8-8-|
D|---7---10~---------------------|---7---10~---------------|
A|-------------------------------|-------------------------|
E|-------------------------------|-------------------------|

e|-----------------------|------------------------|
B|------------------8----|--9---------------------|
G|-------------8---------|-------10r--8~-----8--8-|
D|---7---10--------------|------------------------|
A|-----------------------|------------------------|
E|-----------------------|------------------------|

e|--------------------------------|--------------------------------|
B|--------------------------------|--------------------------------|
G|---8---------8-----11/10h8-10-8-|-------------------11/10h8-10-8-|
D|-----7--10~---------------------|---7---10--10-------------------|
A|--------------------------------|--------------------------------|
E|--------------------------------|--------------------------------|

                                                     C#9
e|-----------------------|------------------------|------------------|
B|------------------8----|--9----------16~--------|------------------|
G|-------------8---------|-------10r-8------------|------------------|
D|---7---10--------------|------------------------|------------------|
A|-----------------------|------------------------|------------------|
E|-----------------------|------------------------|------------------|

    C7/9+                C#9                  C7/9+
e|--------------14b---|--------------------|--------------16r14h16-14-|
B|--------------------|--16~---------------|--------------------------|
G|--------------------|--------------------|--------------------------|
D|--------------------|--------------------|--------------------------|
A|--------------------|--------------------|--------------------------|
E|--------------------|--------------------|--------------------------|

        C#9              C7/9+                G#7sus2   F7sus4add
e|--------------------|--------------14b---|--------------------|
B|------16~-----------|--------------------|--16~---------------|
G|--------------------|--------------------|--------------------|
D|--------------------|--------------------|--------------------|
A|--------------------|--------------------|--------------------|
E|--------------------|--------------------|--------------------|

    F#7susFm7addEm7add
e|--------------7----|
B|-------------------|
G|-------------------|
D|-------------------|
A|-------------------|
E|-------------------|

e|---------------------------------------------------------15~-|
B|-------------------------------------------6-10-11-13--------|
G|---------------------5-8-5-----------5-7-8------------12-----|
D|---------8---------7-------8-7-5-7-8-------------------------|
A|---0-6-7---8-7-6-9-------------------------------------------|
E|-------------------------------------------------------------|

e|-----------------15~------|-------15~------------|
B|--------------------------|----------------------|
G|---------15-14---------13-|--12------------------|
D|--------------------------|----------------------|
A|--------------------------|----------------------|
E|--------------------------|----------------------|

e|------------------------------------------|---------------------------|
B|------------------------------------------|---------------------------|
G|--13-12-11~---10-9-8-10-------------------|---------------------------|
D|------------------------12-11-10-13-10-12-|--9------------------------|
A|------------------------------------------|---------12h10-12~--10-----|
E|------------------------------------------|---------------------------|

e|--------------------------11-15/16/|--15-11--------------------------------|
B|------------------8-12h11----------|--------12----11----10----8/9--8-------|
G|----------------9------------------|-----------13----12----11----------9-7-|
D|------------9h8--------------------|---------------------------------------|
A|-------7-10------------------------|---------------------------------------|
E|-----------------------------------|---------------------------------------|

e|--------------------------------|-----------------------------------|
B|--------------------------------|----------8----------------8-------|
G|--------------------------------|------7-9--------------7-9---9-7---|
D|--9h8h7--------7~--9------------|----9-------9-7----7-9-----------9-|
A|--------10-7---------10-7~------|-----------------------------------|
E|--------------------------------|-----------------------------------|

e|---------------------------------------|
B|-----------9---------------------------|
G|-------7-9----12-9-----------------7-9-|
D|-----9-------------12-9/7------7-9-----|
A|---------------------------------------|
E|---------------------------------------|

e|-------------------------------------------------------------------|
B|--10/9/10-8---------------------------8-11-12-10-11-9-10-8-9-------|
G|------------10----------------12-8-10------------------------10----|
D|---------------10-8---8-10-12-----------------------------------11-|
A|--------------------8----------------------------------------------|
E|-------------------------------------------------------------------|

e|-----------------------------------------|
B|----------6------------------------------|
G|----8-7-6---8-6--------------------------|
D|--8-------------6---8-6------------------|
A|------------------8-----6-------7--------|
E|---------------------------6-5----5-7----|

e|---------------15-----------------------|
B|------------15--------------------------|
G|------14-16-------16-14-15-13-14--13~---|
D|---14-----------------------------------|
A|----------------------------------------|
E|----------------------------------------|

e|----------------------------------------------|
B|----------------------------------------------|
G|------------------12-15-----------------------|
D|---16-15-14-13-15-------15-------------15-12--|
A|---------------------------15-13----13--------|
E|---------------------------------13-----------|

e|----------------------------------|------12--15~-----------|
B|------------------------------12--|--15--------------------|
G|----------------------12--14------|------------------------|
D|--12-13---13-14---14--------------|------------------------|
A|----------------------------------|------------------------|
E|----------------------------------|------------------------|

e|----------15b------12-|--13--12---------------------------------|
B|----------------------|---------13-----10----11----13b----13-11-|
G|----------------------|-------------10----10----10--------------|
D|----------------------|-----------------------------------------|
A|----------------------|-----------------------------------------|
E|----------------------|-----------------------------------------|

e|------------------------------------------|
B|--10--------------------------------------|
G|-----12-11--------------------------------|
D|-----------13-12-11-10--------------------|
A|-----------------------13-12-10-9----7----|
E|----------------------------------10------|

e|---------------------------------------------------------|
B|------------------------------------13/--12-------13/11--|
G|---------------------------12-14/15---------15-14--------|
D|------------------10-12/14-------------------------------|
A|------------10-13----------------------------------------|
E|------10-12----------------------------------------------|

e|-----------------------------------|-----------------------------------------|
B|---10------------------------------|-----------------------------------------|
G|------12-10-9~---------12-12----12-|-----------13-10-------------8-6---------|
D|-----------------------------14----|--13/12-11-------11------8-------6---8---|
A|-----------------------------------|--------------------11/8---8-------8---8-|
E|-----------------------------------|-----------------------------------------|

e|------------------------------|------------------------|
B|------------------------------|------------------------|
G|------------------------------|------------------------|
D|------------------------------|----------8--------7----|
A|--6-8-6-5-4-6-3------6--------|--------7--------8------|
E|----------------6-4----4-6----|------6--------7--------|

e|------------------------------------------8----10-15-15b---|
B|--------------------------------------6-8---10-------------|
G|------------------8-5-------5-8-5-7-8----------------------|
D|------6-------5-8-----8-5-8--------------------------------|
A|--0-7---8-7-6----------------------------------------------|
E|-----------------------------------------------------------|

e|------15--19b-19b---19b---19b---|--19b---19b---17r-----------|
B|--------------------------------|----------------------------|
G|--------------------------------|----------------------------|
D|--------------------------------|----------------------------|
A|--------------------------------|----------------------------|
E|--------------------------------|----------------------------|

e|----15-12-----------------------------|----------------------------|
B|--------------------------------------|----------------------------|
G|----------15-14-12----14-12-14~-14b---|--------14--------16b-------|
D|-------------------14-----------------|-----14----14---------------|
A|--------------------------------------|--------------14------------|
E|--------------------------------------|----------------------------|

e|----------------------------------------------------------------------------|
B|-------------12----13-12-12----------13-------13-------------12-12----------|
G|----14-15-15----15----------15-14-15----15-15----15-14-13-12-------12-12-11-|
D|----------------------------------------------------------------------------|
A|----------------------------------------------------------------------------|
E|----------------------------------------------------------------------------|

e|---------------------------------------------------------------------|
B|---------------------------------------------------------------------|
G|--14-------------12-15----------10----------------------------7-10-7-|
D|-----15-14-13-15-------13-12-11----11-10-----------------7-10--------|
A|-----------------------------------------11----10------8-------------|
E|--------------------------------------------13----11-8---------------|

e|-------------------------------------------------------------------------|
B|-------------------------------------------------------------------------|
G|------------------------------10-11-12-13-11-12-10-11-9-10-8-9-7-5-8-7-5-|
D|-----10-13-10-9----9-10-12-13--------------------------------------------|
A|--10------------10-------------------------------------------------------|
E|-------------------------------------------------------------------------|

e|------------------------------|-------------------------------|
B|-----5--8------------10-------|----------------------10-------|
G|--4-------------9-12----12-9--|--12-----9~------9-12----12-9--|
D|--------------9---------------|------9--------9---------------|
A|------------------------------|-------------------------------|
E|------------------------------|-------------------------------|

e|---------------------------------|----------------------------------|
B|--10-------------------11--------|--11--------------------10-12-----|
G|------9--12~------9-13----13-----|----------13~------9-12-------12--|
D|----------------9------------13--|------13---------9----------------|
A|---------------------------------|----------------------------------|
E|---------------------------------|----------------------------------|

e|------------------------------------------|-----------------------10-15/17r-|
B|------------------------------------------|-----------------10-12-----------|
G|--14----12~-14----12-12-14----12~-14~-12~-|-----------9---9-----------------|
D|-----14--------14----------14-------------|---------7---9-------------------|
A|------------------------------------------|-------7-------------------------|
E|------------------------------------------|---------------------------------|

e|------15--12--------------------------|--------------------------------------|
B|--------------------------------------|--------------------------------------|
G|--------------15-14-12----14-12-14-16-|--14~--12-----------------------12-14-|
D|-----------------------14-------------|----------14~----------12-14-15-------|
A|--------------------------------------|-----------------12-15----------------|
E|--------------------------------------|--------------------------------------|

e|--------------13-15-17b-----------|----15--12--------------------------|
B|-----13-15-16---------------------|------------------------------------|
G|--15------------------------------|------------15--14-12-----12--14-15-|
D|----------------------------------|----------------------14------------|
A|----------------------------------|------------------------------------|
E|----------------------------------|------------------------------------|

e|--------------------------------------|------------------------------|
B|--13----------------------13----------|-----------13-13b-13~---------|
G|----------14-12----12-14--------14-12-|-----12-14--------------------|
D|----------------14--------------------|--14--------------------------|
A|--------------------------------------|------------------------------|
E|--------------------------------------|------------------------------|

e|---------------------------------------------------------------|
B|----13-13b13-12-11-11---11-13-12-13-12-11-12-13-11-13-12-13-12-|
G|---------------------------------------------------------------|
D|---------------------------------------------------------------|
A|---------------------------------------------------------------|
E|---------------------------------------------------------------|

e|----------------------------------------------------------10-13-17b|
B|--11-13-11-13-12-13-12-11-12-10-11-10-11-13-11-10-9-10-11----------|
G|-------------------------------------------------------------------|
D|-------------------------------------------------------------------|
A|-------------------------------------------------------------------|
E|-------------------------------------------------------------------|

e|----17--17b-17--17b-17--18-18~--|----------------------|
B|--------------------------------|----------------------|
G|--------------------------------|--------------8-8-8-8-|
D|--------------------------------|----------------------|
A|--------------------------------|----------------------|
E|--------------------------------|----------------------|

e|-------------------------------|-------------------------|
B|-------------------------------|-------------------------|
G|------------8-----11/10h8-10-8-|-----------------8-8-8-8-|
D|---7---10~---------------------|---7---10~---------------|
A|-------------------------------|-------------------------|
E|-------------------------------|-------------------------|

e|-----------------------|------------------------|
B|------------------8----|--9---------------------|
G|-------------8---------|-------10r--8~-----8--8-|
D|---7---10--------------|------------------------|
A|-----------------------|------------------------|
E|-----------------------|------------------------|

e|--------------------------------|--------------------------------|
B|--------------------------------|--------------------------------|
G|---8---------8-----11/10h8-10-8-|-------------------11/10h8-10-8-|
D|-----7--10~---------------------|---7---10--10-------------------|
A|--------------------------------|--------------------------------|
E|--------------------------------|--------------------------------|

e|-----------------------|-------------11---------|------------------|--9b-------|
B|------------------8----|--9---------------------|------------------|-----------|
G|-------------8---------|-------10r-8------------|------------------|-----------|
D|---7---10--------------|------------------------|------------------|-----------|
A|-----------------------|------------------------|------------------|-----------|
E|-----------------------|------------------------|------------------|-----------|

e|--9b---6~------------|--9b-------9r-------|--8--8b-6~------------|
B|------------------6--|--------------------|-----------------8b---|
G|---------------------|--------------------|----------------------|
D|---------------------|--------------------|----------------------|
A|---------------------|--------------------|----------------------|
E|---------------------|--------------------|----------------------|

e|------6~--------9b---|------9-----8b--------|--8b---8b-8--8---------|
B|-------------6-------|---------6---------6--|--------------------6--|
G|---------------------|----------------------|-----------------------|
D|---------------------|----------------------|-----------------------|
A|---------------------|----------------------|-----------------------|
E|---------------------|----------------------|-----------------------|

e|--9b-------8r-----------|----------------------------------|
B|------------------11~---|--9-6-----------------------------|
G|------------------------|------9-8-6---8---6-8r--6-8---6---|
D|------------------------|------------8---8-----------8-----|
A|------------------------|--------------------------------8~|
E|------------------------|----------------------------------|

e|-----------------------|------------------------|------------------------|
B|-----------------------|------------------------|-----------8------------|
G|---------6--8--8b-8b---|-------8b-8b-8r-----8h6-|-----6--8b----8b---8r---|
D|------8----------------|----8-------------------|--8---------------------|
A|-----------------------|------------------------|------------------------|
E|-----------------------|------------------------|------------------------|

e|-------------------------------|--------9-6~---9--11b-----|
B|-------------------------------|------6-------------------|
G|-------8b-8h6-8---6-8b-8h6-8---|--6h7---------------------|
D|----8-----------8------------8-|--------------------------|
A|-------------------------------|--------------------------|
E|-------------------------------|--------------------------|

e|--11b---11r9/8---------------------|----------------------------------|
B|---------------11-10-8h9-7h6-------|----------------------5-6-7-8-9h6-|
G|-----------------------------8-6/5-|--8h5-6---5-----5-6-8-------------|
D|-----------------------------------|--------7---7h8-------------------|
A|-----------------------------------|----------------------------------|
E|-----------------------------------|----------------------------------|

e|--------------------------------|-----------------------------|
B|--8h6---------------------------|-----------------------------|
G|------8-6b-8-5h6h5-----5--------|------9--11b-11h9-------9~---|
D|-------------------8h7---5h6-5--|--11--------------11~--------|
A|--------------------------------|-----------------------------|
E|--------------------------------|-----------------------------|

e|------14b-14h12-------12-14-16h12-|
B|----------------14~---------------|
G|----------------------------------|
D|----------------------------------|
A|----------------------------------|
E|----------------------------------|

e|--14-12/11--------------------------------------|
B|-----------14-13h10-------10-------10----9----9-|
G|--------------------11----------11----13---11b--|
D|-----------------------13----13-----------------|
A|------------------------------------------------|
E|------------------------------------------------|

e|-----------------------------------|---------------------------------------|
B|-----------------------------------|----------------------------------9-12-|
G|--9-9/8----------------------------|-------------------------8-11-8h9------|
D|--------11-10h8-9-7/6--------------|--------6-9-7-7/8-11-8h9---------------|
A|----------------------9-7/6-9h6-7--|------7--------------------------------|
E|-----------------------------------|----9----------------------------------|

e|--------------------------14-11------16--12-9---|
B|--16-12-------17-14-------------12------------9-|
G|--------13----------15-------------x------------|
D|-----------14----------16-----------------------|
A|------------------------------------------------|
E|------------------------------------------------|

e|-----------------------------------------|
B|-------9-------------------------------9-|
G|--9-11---9/8-------8-----------------9---|
D|-------------11-10---11-10h9-11-8-11-----|
A|-----------------------------------------|
E|-----------------------------------------|

e|------------12-14-16h12-14-12/11----------------|------------------------|
B|--12h9-11h9----------------------14-12h11-14h11-|--13b---13b---11~-------|
G|------------------------------------------------|------------------------|
D|------------------------------------------------|------------------------|
A|------------------------------------------------|------------------------|
E|------------------------------------------------|------------------------|

e|--------------------13b---|------13r---11r-----9----|
B|--14b---14b---11~---------|----------------------11-|
G|--------------------------|-------------------------|
D|--------------------------|-------------------------|
A|--------------------------|-------------------------|
E|--------------------------|-------------------------|

e|--11b-11-9------11b-11-9------11b-11r-----|
B|-----------11-9----------11-9-------------|
G|------------------------------------------|
D|------------------------------------------|
A|------------------------------------------|
E|------------------------------------------|

e|--11-9/8-----------------------------|--------5-------------------------|
B|---------11-10h8-9-7/6---------------|----5h7---7h5---------5-8h5-------|
G|-----------------------8-6/5-8-5h6/8/|--7-----------7/6h5h7-------7h5/6-|
D|-------------------------------------|----------------------------------|
A|-------------------------------------|----------------------------------|
E|-------------------------------------|----------------------------------|

e|---------------------------------|------------------------------------|
B|-----6-9h6-7-8h6-7---------------|--------6---------------------------|
G|---8---------------9h8-6/5-----5-|----5-6---8-7h6h5-------------------|
D|---------------------------8h7---|--8---------------8h7h6-------------|
A|---------------------------------|------------------------8-6-4-3-----|
E|---------------------------------|---------------------------------4b-|

e|---------------------|---------------------|-----------------------|
B|---------------------|---------------------|-----------------------|
G|-----------8r------7-|-------6~------------|-------8b---8b-----8h6-|
D|------8~-------------|--8~-----------------|--8--------------------|
A|---------------------|---------------------|-----------------------|
E|---------------------|------------4b-------|-----------------------|

e|---------------------------|-------------------------|
B|---------------------------|-------------------------|
G|--8---6-8b-8h6-8~----------|----------6--8b-8b-8b-8b-|
D|----8----------------------|----8--8-----------------|
A|---------------------------|-------------------------|
E|----------------------4b---|-------------------------|

e|----------------------------|------------------6--------------------|
B|----------------------------|---------------------------9--9--9--9--|
G|--8b-8b-8b-8b-8r--6-8---6-8~|-----8---6-8r-6-8---6-8/10-10-10-10-10-|
D|----------------------8-----|---8---8-------------------------------|
A|----------------------------|---------------------------------------|
E|----------------------------|---------------------------------------|

e|----------------------------------------------------|
B|--9--9--9--9--9--9--9--9--9--9--9--9--9---11-12b----|
G|--10-10-10-10-10-10-10-10-10-10-10-10-10------------|
D|----------------------------------------------------|
A|----------------------------------------------------|
E|----------------------------------------------------|

e|-----------------------9-----------9-----------9------|
B|---12h9----9h12h9----9---12h9----9---12h9----9---12h9-|
G|--------11b-------11b---------11b---------11b---------|
D|------------------------------------------------------|
A|------------------------------------------------------|
E|------------------------------------------------------|

e|-------9-----------9-----------9-----------9-----------9------|
B|-----9---12h9----9---12h9----9---12h9----9---12h9----9---12h9-|
G|--11b---------11b---------11b---------11b---------11b---------|
D|--------------------------------------------------------------|
A|--------------------------------------------------------------|
E|--------------------------------------------------------------|

e|-------9-----------9-----------9-----------9-----------9------|
B|-----9---12h9----9---12h9----9---12h9----9---12h9----9---12h9-|
G|--11b---------11b---------11b---------11b---------11b---------|
D|--------------------------------------------------------------|
A|--------------------------------------------------------------|
E|--------------------------------------------------------------|

e|-------9-----------9-----------9-----------9-----------9------|
B|-----9---12h9----9---12h9----9---12h9----9---12h9----9---12h9-|
G|--11b---------11b---------11b---------11b---------11b---------|
D|--------------------------------------------------------------|
A|--------------------------------------------------------------|
E|--------------------------------------------------------------|

e|-------9-----------9-----------9-----------9-----------9------|
B|-----9---12h9----9---12h9----9---12h9----9---12h9----9---12h9-|
G|--11b---------11b---------11b---------11b---------11b---------|
D|--------------------------------------------------------------|
A|--------------------------------------------------------------|
E|--------------------------------------------------------------|

e|-------9---------14b-------14b---|------14b---14b---14b--12-|
B|-----9---12h9--------------------|--------------------------|
G|--11b---------11b----------------|--------------------------|
D|---------------------------------|--------------------------|
A|---------------------------------|--------------------------|
E|---------------------------------|--------------------------|

e|------------------------|-------------------------------|
B|--14~-------------------|-------------------------------|
G|----------------8-8-8-8-|------------8-----11/10h8-10-8-|
D|------------------------|---7---10~---------------------|
A|------------------------|-------------------------------|
E|------------------------|-------------------------------|

e|-------------------------|-----------------------|------------------------|
B|-------------------------|------------------8----|--9---------------------|
G|-----------------8-8-8-8-|-------------8---------|-------10r--8~-----8--8-|
D|---7---10~---------------|---7---10--------------|------------------------|
A|-------------------------|-----------------------|------------------------|
E|-------------------------|-----------------------|------------------------|

e|--------------------------------|--------------------------------|
B|--------------------------------|--------------------------------|
G|---8---------8-----11/10h8-10-8-|-------------------11/10h8-10-8-|
D|-----7--10~---------------------|---7---10--10-------------------|
A|--------------------------------|--------------------------------|
E|--------------------------------|--------------------------------|

                                                     C#9
e|-----------------------|------------------------|------------------|
B|------------------8----|--9----------16~--------|------------------|
G|-------------8---------|-------10r-8------------|------------------|
D|---7---10--------------|------------------------|------------------|
A|-----------------------|------------------------|------------------|
E|-----------------------|------------------------|------------------|

    C7/9+                C#9                  C7/9+
e|--------------14b---|--------------------|--------------16r14h16-14-|
B|--------------------|--16~---------------|--------------------------|
G|--------------------|--------------------|--------------------------|
D|--------------------|--------------------|--------------------------|
A|--------------------|--------------------|--------------------------|
E|--------------------|--------------------|--------------------------|

        C#9              C7/9+                G#7sus2   F7sus4add
e|--------------------|--------------14b---|--------------------|
B|------16~-----------|--------------------|--16~---------------|
G|--------------------|--------------------|--------------------|
D|--------------------|--------------------|--------------------|
A|--------------------|--------------------|--------------------|
E|--------------------|--------------------|--------------------|

e|---------------------|-------------------------------|
B|---------------------|-----6-8-----6-----6-----------|
G|-------------------6-|*--9-------9-----9---9-8-7-6-8-|
D|---------------6-8---|*------------------------------|
A|---------------------|-------------------------------|
E|---------------------|-------------------------------|

e|--------------------------------|-------------------------------|
B|----6-8-----6-------------6-7---|---6----6-6----6-------------6-|
G|--9-------9---9-8-7-6-8-9-----9-|------9------9---9-8-7-6-8-9---|
D|--------------------------------|-------------------------------|
A|--------------------------------|-------------------------------|
E|--------------------------------|-------------------------------|

e|-----------------------------|-----------------------------------|
B|--8---6----------------------|--8---7---6---------------7-8-9-10-|
G|----9---9-8-7-6-----------6-*|----9---9---9-8-7-6-7-8-9----------|
D|----------------------6-8---*|-----------------------------------|
A|-----------------------------|-----------------------------------|
E|-----------------------------|-----------------------------------|

e|--------------------------------------|
B|---11-----------------------------9---|
G|*-----9-11-9-------9------------9---9-|
D|*------------11-11---11-9~--11--------|
A|--------------------------------------|
E|--------------------------------------|

e|----------------------------------12--9-|-----------------------------------|
B|----------------------------------------|-------------------------------9---|
G|--11h9-11-9-------9---------------------|---9-11-9-------9------------9---9-|
D|------------11-11---11-9-9-10-11--------|----------11-11---11-9~--11--------|
A|----------------------------------------|-----------------------------------|
E|----------------------------------------|-----------------------------------|

e|------------------------------------------|
B|----------------------------------8-9-10--|
G|--11h9-11-9-------9------9-10-11---------*|
D|------------11-11---11-9-----------------*|
A|------------------------------------------|
E|------------------------------------------|

e|----------------------------------------|------------------------------|
B|----------------------------------------|----6-8-----6-----6-----------|
G|--11h9-11-9-------9-------------------6-|--9-------9-----9---9-8-7-6-8-|
D|------------11-11---11-10-10-9-8--6-8---|------------------------------|
A|----------------------------------------|------------------------------|
E|----------------------------------------|------------------------------|

e|--------------------------------|-------------------------------|
B|----6-8-----6-------------6-7---|---6----6-6----6-------------6-|
G|--9-------9---9-8-7-6-8-9-----9-|------9------9---9-8-7-6-8-9---|
D|--------------------------------|-------------------------------|
A|--------------------------------|-------------------------------|
E|--------------------------------|-------------------------------|

e|------------------|------------------------------|--------------------------|
B|--7---6-----------|------------------------------|--------------------------|
G|----9---9-8-7-6-4-|--5-5--4-5-5--4-5-5--4-5-5--4-|--5-5--4-5-5--4-5~-----8b-|
D|------------------|------------------------------|--------------------------|
A|------------------|------------------------------|--------------------------|
E|------------------|------------------------------|--------------------------|

e|-------------------|------------------------|--------------------------|
B|-------------------|------------------------|--------------------------|
G|----------8b-------|--8b---8r--6------6--8--|--8b-8b-8b-8b6------6--8--|
D|-------------------|-------------8~---------|---------------8~---------|
A|-------------------|------------------------|--------------------------|
E|-------------------|------------------------|--------------------------|

e|----------------------|--------------------|-------------------------|
B|----------------------|--------------------|-------------------------|
G|--8b-8b-6b-------8b---|------8b-------8b---|--8r--6------6--8--8b-8b-|
D|----------------------|--------------------|--------8----------------|
A|----------------------|--------------------|-------------------------|
E|----------------------|--------------------|-------------------------|

e|--------------------------------|-------------8b---8b---|--6~--------9b-------|
B|--------------------------------|----------6------------|---------6-----------|
G|--8r--6-8---6h8-5h8h5-8---6-----|-----6b----------------|---------------------|
D|----------8-------------8---8~--|--8--------------------|---------------------|
A|--------------------------------|-----------------------|---------------------|
E|--------------------------------|-----------------------|---------------------|

e|------8b---6---------|--11b---------------|
B|------------------6--|--------------------|
G|---------------------|--------------------|
D|---------------------|--------------------|
A|---------------------|--------------------|
E|---------------------|--------------------|



************************************

| *  Natural harmonic
| ~  Vibrato
| h  Hammer-on
| /  Slide up
| r  Release
| b  Bend
| x  Dead note

************************************

            
            
Suggest correction
Creating personal tab
Creating personal tab
You can edit any tab online and save it as your Personal.

You can edit, replace or remove any tab part or add personal notes – all changes will be seen only by you.

Personal tabs can be accessed anytime from any device, even offline.
Learn more »
Give kudos to tab author, rate the tab!
1 2 3 4 5
comments
print report bad tab
guest
You may want to rate the tab now too:
select rating
Wanna post a correction for this tab? Suggest correction