Oops, an error
Loading. Please wait.

A Un Minuto De Ti Tab

version 2
version 2

Whole song

193 views 1 this week
no commentswrite comment
1 2 3 4 5
3 more votes to show rating
add to favorites
launch autoscroll
font size
0
reset
how to read this tab
guitar tuner
×
Best way to learn
"A Un Minuto De Ti"
Autoscroll
slow
fast
+/-
esc
set tempo
stop
Esta rola va dedicada a mis brothers Diego, Alex y Luigi


 Intro:
                                  Am
 e ---------0------------------0--0---
 b -----1-0---0-1-0--------1-0----1---
 g ---2-------------2----2--------2---
 D -------------------------------2---
 A -0------------------0----------0---
 E -------------------------------0---

 Acordes:(G F Am G)x2

 e -7h5-7h5-----------------------------------
 b ---------88-8-8*10-----8-------------------
 g -------------------7*9---9-7----7-9--------
 D -----------------------------10-----10-----
 A -------------------------------------------
 E -------------------------------------------

 e--------------------------------------------
 b--------------------------------------------
 g--------------------------------------------
 D-6h7-10-10-9-9-------------5-7-5h7~-5---5*7-
 A---------------10-10-----7------------7-----
 E---------------------10---------------------


 e -10*12-10-10-10/8--8/7-7/5-5----------------------------
 b -------------------------------9*10-13-13-13-10-9*10-10-
 g --------------------------------------------------------
 D --------------------------------------------------------
 A --------------------------------------------------------
 E --------------------------------------------------------

 e--------------------------
 b--------------------------
 g-7*9-7-5--5h7--5h4-4------
 D---------7----------------
 A--------------------------
 E--------------------------

G                     F
 Antes de tres lunas volvería por ti
Am                  G
 antes que me eches de menos
G                    F
 dejaste vias muertas hundidas al pasar
Am                   G
 nunca te he esperado tanto

         F         C        G      Em
 A un minuto de ti, voy detrás de ti,
         F         C         G
 a un minuto de ti, te seguire

G                         F  
 El viento se ha calzado sus guantes de piel
Am                   G
 se entretiene con mi pelo
G                     F
 bebo el agua que viene conmigo, estoy
Am                 G
 estancado en tu reflejo.

      F          C        G   Em
 Solamente de ti, gota a gota
      F             C          G
 solamente de ti, veneno y sed

G      D  Am               C
 Llegare solo hasta el umbral
G     D     Am          C
 nadamas, que puedo perder
G          D   Am            C
 me atrevere cuenta un paso más
G     D    Am          C
 nadamas, no soy como tu.


 Solo: (Acompañamiento G F Am G x2)  
 e --------------------------------------------------------------
 b --------------------------------------------------------------
 g ---------------------7h8---5---------5------------------------
 D -5*7-7-7-5-7-5---5*7-----7---7-5-7-----7-5-7------------------
 A ---------------7-------------------7--------------------------
 E --------------------------------------------------------------

 e -10*11-10h11--------------------------------------------------
 b -------------10-13-12-10-10-9/10-10/12-12/13-12-10-8-10-8*7*8-
 g --------------------------------------------------------------
 D --------------------------------------------------------------
 A --------------------------------------------------------------
 E --------------------------------------------------------------

 e 10*12-10*12-12-15-15/12-10-12-10*12------------------------------------------
 b ------------------------------------13-13-12-10---10-13-13-------------------
 g ------------------------------------------------12---------99-12/14----------
 D --------------------------------------------------------------------12h14----
 A --------------------------------------------------------------------------12-
 E -----------------------------------------------------------------------------

 e --------------------------------------------------------------
 b --------------------------------------------------------------
 g -7h9----7-----------------------------------------------------
 D -----10---10-7h6-6*7-77---------------------------------------
 A --------------------------------------------------------------
 E --------------------------------------------------------------


         F         C        G      Em
 A un minuto de ti, voy detrás de ti,
         F         C         G
 a un minuto de ti, te seguire

G       D       Am         C
 Voy a ver, brazeo en espiral
G     D         Am          C
 nadamas, vue vuelvo a repetir
G      D      Am          C
 saltare, planeo en derredor
G     D   Am          C
 nonono, no soy como tu.

G      D  Am               C
 Llegare solo hasta el umbral
G     D     Am           C
 nadamas, que puedo perder
G          D   Am           C
 me atrevere cuenta un paso más
G     D   Am            C  G
 nonono, no soy como tu.


Dudas... comentarios, contactame.
Suggest correction
Give kudos to tab author, rate the tab!
1 2 3 4 5
comments
print report bad tab
guest
You may want to rate the tab now too:
select rating
Wanna post a correction for this tab? Suggest correction