Oops, an error
Loading. Please wait.

Caer Tab

23 views 1 this week
no commentswrite comment
1 2 3 4 5
3 more votes to show rating
add to favorites
launch autoscroll
font size
0
reset
how to read this tab
guitar tuner
×
Best way to learn
"Caer"
Autoscroll
slow
fast
+/-
esc
set tempo
stop
INTRO
        C     ?          Am7      ?       C         ?        Am7     ?
E  ---------------- | ---------------- | ---------------- | ---------------- |
B  ---1-------1---- | ---1--------1--- | ---1-------1---- | ---1-------1---- |
G  --0--0----0--0-- | --0--0----0--0-- | --0--0----0--0-- | --0--0----0--0-- |
D  ---------------- | ---------------- | ---------------- | ---------------- |
A  3-------2------- | 0-------2------- | 3-------2------- | 0--------2------ |
E  ---------------- | ---------------- | ---------------- | ---------------- |


VERSO
        C     C         ?        ?        Am7                 Am7     
E  ---------------- | ---------------- | ---------------- | ---------------- |
B  ---1-------1---- | ---1--------1--- | ---1-------1---- | ---1-------1---- |
G  --0--0----0--0-- | --0--0----0--0-- | --0--0----0--0-- | --0--0----0--0-- |
D  ---------------- | ---------------- | --------2------- | -------0/2------ |
A  3-------3------- | 2-------2------- | 0--------------- | 0--------------- |
E  ---------------- | ---------------- | ---------------- | ---------------- |

   Mi amor te di en un viejo hotel

        C     C         ?        ?        Am7                 Am7     
E  ---------------- | ---------------- | ---------------- | ---------------- |
B  ---1-------1---- | ---1--------1--- | ---1-------1---- | ---1-------1---- |
G  --0--0----0--0-- | --0--0----0--0-- | --0--0----0--0-- | --0--0----0--0-- |
D  ---------------- | ---------------- | --------2------- | -------0/2------ |
A  3-------3------- | 2-------2------- | 0--------------- | 0--------------- |
E  ---------------- | ---------------- | ---------------- | ---------------- |

   Las flores de mi corazon

        C     C         ?        ?        Am7                 Am7     
E  ---------------- | ---------------- | ---------------- | ---------------- |
B  ---1-------1---- | ---1--------1--- | ---1-------1---- | ---1-------1---- |
G  --0--0----0--0-- | --0--0----0--0-- | --0--0----0--0-- | --0--0----0--0-- |
D  ---------------- | ---------------- | --------2------- | -------0/2------ |
A  3-------3------- | 2-------2------- | 0--------------- | 0--------------- |
E  ---------------- | ---------------- | ---------------- | ---------------- |

   Fue tu silencio nuestro adios

      Dm                G
E  ---------1------ | --------3------- |
B  ----3------3--3- | ----3------3---- |
G  ---2--2------2-- | --0---0--------- |
D  0--------------- | ---------------- |
A  ---------------- | ---------------- |
E  ---------------- | -3-------------- |

   Y al caer el sol


        C     ?          Am7            
E  ---------------- | -------0-------- | 
B  ---1-------1---- | ---1-----1--1--- | 
G  --0--0----0--0-- | --0--0----0----- | 
D  ---------------- | ---------------- | 
A  3-------2------- | 0--------------- | 
E  ---------------- | ---------------- | 

   A veces se paro

      Dm                G
E  ---------1------ | --------3------- |
B  ----3------3--3- | ----3------3---- |
G  ---2--2------2-- | --0---0--------- |
D  0--------------- | ---------------- |
A  ---------------- | ---------------- |
E  ---------------- | -3-------------- |

   Y al caer el sol

INTRO
        C     ?          Am7      ?       C         ?        Am7     ?
E  ---------------- | ---------------- | ---------------- | ---------------- |
B  ---1-------1---- | ---1--------1--- | ---1-------1---- | ---1-------1---- |
G  --0--0----0--0-- | --0--0----0--0-- | --0--0----0--0-- | --0--0----0--0-- |
D  ---------------- | ---------------- | ---------------- | ---------------- |
A  3-------2------- | 0-------2------- | 3-------2------- | 0--------2------ |
E  ---------------- | ---------------- | ---------------- | ---------------- |


El resto del verso en la cancion es parecido, la letra es:

        Los a¤os pasan sigo aqui
        sentado junto al surtidor
        que grande es el colchon sin ti

        y al caer el sol
        pienso solo en ti
        y al caer el sol

AQUI CAMBIA (En lugar de tocar como el intro, el final es un poco diferente)

        C     ?          Am7      ?       C         ?        Am7     
E  ---------------- | ---------------- | ---------------- | ---------------- |
B  ---1-------1---- | ---1--------1--- | ---1-------1---- | ---1------------ |
G  --0--0----0--0-- | --0--0----0--0-- | --0--0----0--0-- | --0--0---0------ |
D  ---------------- | ---------------- | ---------------- | -------2-------- |
A  3-------2------- | 0-------2------- | 3-------2------- | 0--------------- |
E  ---------------- | ---------------- | ---------------- | ---------------- |


Donde ?? Es la pisada mostrada en la tablatura con ?
Ademas, se toca con arpegio

Fm        G      C    ??    Am
Golpe certero, rendido a tus pies
Fm         G      Am
y en un instante caer


Verso(Se toca con arpegio)

Amor al viento le pedi
te traigan pronto junto a mi
no pierdo facil la ilusion

y al caer el sol,
vuelvo a estar sin ti o no

y al caer el sol

Se termina igual que el intro solo cambia el final

        C     ?          Am7      ?       C         ?        Am7     ?
E  ---------------- | ---------------- | ---------------- | -----------3---- |
B  ---1-------1---- | ---1--------1--- | ---1-------1---- | ---1------------ |
G  --0--0----0--0-- | --0--0----0--0-- | --0--0----0--0-- | --0--0----0--0-- |
D  ---------------- | ---------------- | ---------------- | ---------------- |
A  3-------2------- | 0-------2------- | 3-------2------- | 0--------2------ |
E  ---------------- | ---------------- | ---------------- | ---------------- |


Y Se toca el acorde de Do, todas las cuerdas

================================================
Transcripcion de Antonio Mendez 
(al283525@
Suggest correction
Give kudos to tab author, rate the tab!
1 2 3 4 5
comments
print report bad tab
guest
You may want to rate the tab now too:
select rating
Wanna post a correction for this tab? Suggest correction