Oops, an error
Loading. Please wait.

En Solitario Bass

1 view 1 this week
no commentswrite comment
1 2 3 4 5
3 more votes to show rating
add to favorites
launch autoscroll
font size
0
reset
guitar tuner
×
Best way to learn
"En Solitario"
Autoscroll
slow
fast
+/-
esc
set tempo
stop
Mikel Erentxun	En Solitario  

Intro					Justo antes de empezar la letra
G |-------------------------|     |-----------------------------------------------------------||
D |-------------------------|     |-----------------------------------------------------------||
A |---------555555-7777777--|     |----------555555-7777775757575-----------------------------||
E |---555555----------------|     |---555555--------------------------------------------------||

                 ________________________________________


He pagado lo que debo, ya se pueden cancelar, mis deudas de Don Nadie, mis palabras de vaiven... 


G |---------------------------------------------------------------------------||
D |---------------------------------------------------------------------------||
A |---------555555-7777777777-------------------------------------------------||
E |---555555------------------------------------------------------------------||
  

  
             Carta Blanca pasaporte...y poco mas, que añadir... 

G |---------------------------------------------------------------------------||
D |---------222222/777777-444444--------777777--------------------------------||
A |--555555----------------------555555--------77777775757575-----------------||
E |---------------------------------------------------------------------------||
                                 |-------------------|
                                           |
                                           |        Tb se puede tocar asi
                              G |----------------------------------------------||     
                              D |----------------------------------------------||      
                              A |-55555/(12)(12)(12)(12)(12)(12)-77777775757575|| 
                              E |----------------------------------------------||    


    Sé,           que hasta hoy,             no he mirado,  
G |--------------------------------------------------------------------------||
D |-------------------4-7-4-------6-9-6-------4-7-4--------------------------||
A |------4-7-4---5--5-------5-7-7-------7-5-5--------5-----------------------||
E |-5--5-------5---------------------------------------5---------------------||

    Ni una pizca             por mi              a pesar
	
G |--------------------------------------------------------------------------||
D |-------------------4-7-4-------6-9-6-------4-7-4--------------------------||
A |------4-7-4---5--5-------5-7-7-------7-5-5--------5-----45-5-7------------||
E |-5--5-------5---------------------------------------5-5-------------------||

    De caminar                En solitario                Siempre he andado por ti...

G |----------------------------------------------------------------------------------------||
D |------4-7-4-------6-9-6-------4-7-4----------------------4-7-4-------6-9-6--------------||
A |-5--5-------5-7-7-------7-5-5--------5------4-7-4---5--5-------5-7-7-------7-5-4--------||
E |---------------------------------------5--5-------5------------------------------7-5----||


	No son nubes de verano, tienen la velocidad, de la sangre que circula, por mis venas, es decir...

G |---------------------------------------------------------------------------||
D |---------------------------------------------------------------------------||
A |---------555555-7777777777-------------------------------------------------||
E |---555555------------------------------------------------------------------||

	 De un estanque,de un pantano,es mi eterna indecision		
G |-----------------------------------------------------------------------------||
D |---------222222/444444--777777--------777777---------------------------------||
A |--555555-----------------------555555--------7777777775757575----------------||
E |-----------------------------------------------------------------------------||


	    Bien           cada cual,             pide aquello  
G |--------------------------------------------------------------------------||
D |-------------------4-7-4-------6-9-6-------4-7-4--------------------------||
A |------4-7-4---5--5-------5-7-7-------7-5-5--------5-----------------------||
E |-5--5-------5---------------------------------------5---------------------||

      que es de su propiedad       pero a mi, a mi, a mi     quien me paga         	
G |--------------------------------------------------------------------------||
D |-------------------4-7-4-------6-9-6-------4-7-4--------------------------||
A |------4-7-4---5--5-------5-7-7-------7-5-5--------5-----45-5-7------------||
E |-5--5-------5---------------------------------------5-5-------------------||

    mi racion             doble de soledad                        Ohh, y mi mal nombre

G |----------------------------------------------------------------------------------------||
D |------4-7-4-------6-9-6-------4-7-4----------------------4-7-4-------6-9-6--------------||
A |-5--5-------5-7-7-------7-5-5--------5------4-7-4---5--5-------5-7-7-------7-5-4--------||
E |---------------------------------------5--5-------5------------------------------7-5----||


Durante el solo 

G |---------------------------------------------------------------------------||
D |---------------------------------------------------------------------------||
A |---------555555-7777777777-------------------------------------------------||
E |---555555------------------------------------------------------------------||


            Carta Blanca pasaporte...y poco mas, que añadir... 

G |--------------------------------------------------------------------------||
D |-------2/777777-444444---------777777-------------------------------------||
A |--5---------------------555555--------7777777775757575--------------------||
E |--------------------------------------------------------------------------||

Gustavo Garcia
Suggest correction
Give kudos to tab author, rate the tab!
1 2 3 4 5
comments
print report bad tab
guest
You may want to rate the tab now too:
select rating
Wanna post a correction for this tab? Suggest correction