Oops, an error
Loading. Please wait.

Escribo Tu Pelo Negro Chords

20 views 1 this week
no commentswrite comment
1 2 3 4 5
3 more votes to show rating
add to favorites
launch autoscroll
font size
0
reset
transpose
0
reset
simplify chords
display chords
guitar tuner
Autoscroll
slow
fast
+/-
esc
set tempo
stop
Help us to improve Ultimate-Guitar.com Take our survey!
×
____ acordes ____________
|                       |
| Em:   022000          |
| A:    002220          |
| D:    000232          |
| Bm:   224432          |
| D7:   000212          |
| G:    320003 (355433) |
| D7 :  000222          |
|_______________________|


                   Em     A                 D   Bm
Conozco unas mil puertas     para llegar a ti,
           Em    A                   D
pero sólo sirve     la que me abras tú.
              Em    A                    D   A  Bm
Bajo las persianas     mientras baja el sol
                Em   A                          D   D7
y hojeo con desgana     la prensa del día anterior.

                     G
No me interesa nada más,
        A          D   A              Bm  G
sólo quiero despertar     y volver a ver
            D    A                G         D
tu piel desnuda     mojando la habitación.

               Em    A             D   A  Bm
Conozco mil maneras     de hacer sentir
                 Em                    A                      D
Escribo tu pelo negro en mis ojos en blanco y sabes que es por ti.
             Em    A                   D    A  Bm
Estoy inmunizado,     la marea negra se fue
             Em    A                  D   D7
y soy exactamente     lo que dejé de ser.


                     G
No me interesa nada más,
      A            D   A           Bm  G
sólo me quiero dormir     y recuperar
              D    A       G      D
el tiempo perdido     abrazado a ti.


[solo]:
     Em                  A
E-||-----7--------------|----------------------|
B-||----8------5--7-----|5---------------5----5h
G-||---9----------------|----------6--7--------|
D-||--9-----------------|----------------------|
A-||-7------------------|----------------------|
E-||7-------------------|----------------------|

    D          A           Bm
E-||----------------------|-----2----------------|
B-||7----7-----5----5-----|----3---2h3h2h32--2---|
G-||----7----------6------|---4----------------4-|
D-||---7----------7-------|--4-------------------|
A-||----------------------|-2--------------------|
E-||----------------------|2---------------------|

     Em                  A
E-||-----7--------------|----------------------|
B-||----8-------7-------|5---------------------|
G-||---9----------------|--------------6h7h6---|
D-||--9-----------------|----------------------|
A-||-7------------------|----------------------|
E-||7-------------------|----------------------|
    D                      D7
E-||-----2----------------|-----2----------------|
B-||----3-----------------|----1-----------------|
G-||---2------------------|---2------------------|
D-||--0-------------------|--0-------------------|
A-||-0--------------------|-0--------------------|
E-||0---------------------|0---------------------|

                     G
No me interesa nada más,
        A          D   A              Bm
sólo quiero despertar     y volver a ver
            D    A                G         D
tu piel desnuda     mojando la habitación.

                     G
No me interesa nada más,
      A            D   A           Bm
sólo me quiero dormir     y recuperar
              D    A       G      D
el tiempo perdido     abrazado a ti.

     D7         G
Abrazado a ti,
     D7         G
abrazado a ti,
     D7         G
abrazado a ti,
     D7         G
abrazado a ti...
     D7         G

     D7         G

     D7         G

     D7         G

     D7 


###------------------------------###
### Tablatura de: Enrique Moraño ###
### Sevilla [Spain]     OCT-2006 ###
###      emorano@     ###
###------------------------------###
Suggest correction
Give kudos to tab author, rate the tab!
1 2 3 4 5
comments
print report bad tab
guest
You may want to rate the tab now too:
select rating
Wanna post a correction for this tab? Suggest correction