Oops, an error
Loading. Please wait.

Loco De Atar Chords

22 views 3 this week
no commentswrite comment
1 2 3 4 5
3 more votes to show rating
add to favorites
launch autoscroll
font size
0
reset
transpose
0
reset
display chords
guitar tuner
Autoscroll
slow
fast
+/-
esc
set tempo
stop
Strumming
There is no strumming pattern for this song yet. and get +5 IQ
A: 002220
D: 000232
E: 022100
---------

[intro]

A   D

      A                          D
E-||--0----0-----0--0--0-0--0----2----2-----2--2--2-2--2---
B-||--0/2--0/2---0--2--3-2--0----0/2--0/2---0--2--3-2--0---
G-||--2----2-----2--2--2-2--2----2----2-----2--2--2-2--2---
D-||--2----2-----2--2--2-2--2----0----0-----0--0--0-0--0---
A-||--0----0-----0--0--0-0--0----0----0-----0--0--0-0--0---
E-||--0----0-----0--0--0-0--0----0----0-----0--0--0-0--0---

      A                          D
E-||--0----0-----0--0--0-0--0----2-------------------------
B-||--0/2--0/2---0--2--3-2--0----3-------------------------
G-||--2----2-----2--2--2-2--2----2-------------------------
D-||--2----2-----2--2--2-2--2----0-------------------------
A-||--0----0-----0--0--0-0--0----0-------------------------
E-||--0----0-----0--0--0-0--0----0-------------------------


D            E
   Voy de aquí para allí
A          D
   sin llegar a ningún lugar
          E         A  
   como una veleta más
D           E
   Quiero oler lo que ves
A         D
   quiero escuchar tu piel
      E              A  
   tocar tu respiración


[estribillo, tocando la primera parte de la intro]
 A
Loco de atar, no veo el peligro
 D
Loco de atar, por que no decirlo
 A                                  D
Loco de atar, estoy cuando tu no estás
 A
Loco de atar, si mueves los hilos
 D
Loco de atar, me tienes en vilo
 A
Loco de atar,
                D
cuando tu no estás


D             E
   El cesped sabe a tí
A              D
   a un verde aún sin descubrir 
           E          A
   a un regalo sin abrir
D              E
   El bosque huele a tí
A           D 
   a un amarillo que es azul
           E                A    
   a un diciembre que es abril


 A
Loco de atar, igual que las nubes
 D
Locas de atar, que bajan y suben
 A                                D
Locas de atar, dibujan lo que no hay
 A
Loco de atar, encima del mundo
 D
Loco de atar, midiendo el futuro
 A                              D
cabos que atar y otros que desatar


E   D
E   D


 A
Loco de atar, no veo el peligro
 D
Loco de atar, me tienes en vilo
 A 
Loco de atar
                D
cuando tu no estás

 A
Loco de atar
 D
Loco de atar
 A
Loco de atar
                D
cuando tu no estás. 

A   D
A   D
A   D
A   D   D


###--------------------------------###
### Tablatura de:  Enrique Moraño  ###
###  Sevilla [España]  para ATAME  ###
### emorano@   ABR-2003 ###
###--------------------------------###
Suggest correction
Give kudos to tab author, rate the tab!
1 2 3 4 5
comments
print report bad tab
guest
Wanna post a correction for this tab? Suggest correction