Oops, an error
Loading. Please wait.

Mienteme Chords

26 views 1 this week
no commentswrite comment
1 2 3 4 5
3 more votes to show rating
add to favorites
launch autoscroll
font size
0
reset
transpose
0
reset
display chords
guitar tuner
×
Best way to learn
"Mienteme"
Autoscroll
slow
fast
+/-
esc
set tempo
stop
INTRO:

C F (VARIAS VECES)

E|-----------O-------------O--|
B|-1-------3-----1------2-----|
G|---O-------------O----------|
D|-----2--------------2-------|
A|----------------------------|
E|----------------------------|

1)
F
SE COMO QUIERAS TEN LO QUE QUIERAS 
  C
Y DILO ASI 
F                           C
AFORTUNADO, DESENFOCADO, YO SIGO AQUI 
F                        C
OH! DESPOJA DE MI CUERPO ALGO FUGAZ 
F                            C
OH! ENCUENTRAME MALDITO EN LA TEMPESTAD. 

2)
Am    F             C
MIENTEME SIN CONDICION 
    G
SIN ODIO DENTRO 
Am    F             C
MIENTEME QUE NO HAY AMOR 
      G
SIN DOLOR 

C F (VARIAS VECES)

E|-----------O-------------O--|
B|-1-------3-----1------2-----|
G|---O-------------O----------|
D|-----2--------------2-------|
A|----------------------------|
E|----------------------------|


1)
PAUSADAMENTE CONSTANTEMENTE 
TE QUIERO AQUI 
VOY ASTILLADO EN TU RECUERDO 
QUE YO ESCOGI 

2)
MIENTEME, HAZLO POR MI 
CON TU VENENO 
MIENTEME, Y VETE A DORMIR 
HOY SIN MI

2)
LA PROA QUE OBSTINADA, ABRE AL PASAR 
BRECHA EN EL HORIZONTE DE ESTE 
CANSADO MAR.

E|-8-8-7-5-3-1-O--------------|
B|---------------1-1-3-5-3-3--|
G|----------------------------|
D|----------------------------|
A|----------------------------|
E|----------------------------|


Am F C G

MIENTEME QUE NO HAY AMOR...
MIENTEME HAZLO POR MI...
MIENTEME VETE A DORMIR...


NOTA: LA NOTA F EN LA ESTROFA ES F:X1233X Y EN EL CORO F: 112331
Suggest correction
Give kudos to tab author, rate the tab!
1 2 3 4 5
comments
print report bad tab
guest
You may want to rate the tab now too:
select rating
Wanna post a correction for this tab? Suggest correction