Oops, an error
Loading. Please wait.

Negro Drum Tab

version 2
version 2

Whole song

4 views 1 this week
no commentswrite comment
1 2 3 4 5
3 more votes to show rating
add to favorites
launch autoscroll
font size
0
reset
guitar tuner
Autoscroll
slow
fast
+/-
esc
set tempo
stop
Help us to improve Ultimate-Guitar.com Take our survey!
×
Negro
Mikel Erextun
Naufragio

Nota: tu puedes tocar los bombos como mejor te suene la cancion; 
en esta siempre llevate del bajo , esta es la base de la bateria. 
Yo me llevo por el bajo para que suene mejor esta cancion.

(Sale raro cuando la paso aca, yo mande la anterior vi que estaba mal y se vei mal)


C  |X---------------|----------------|----------------|----------------|
H  |--x-x-x-x-x-x-x-|x-x-x-x-x-x-x-x-|x-x-x-x-x-x-x-x-|x-x-x-x-x-x-x-x-|
S. |----o-------o---|----o-------o---|----o-------o---|----o-------o---|
B. |0-------0-------|0-------0-------|0-------0-------|0-------0-------|
   (1 + 2 + 3 + 4 + |1 + 2 + 3 + 4 + |1 + 2 + 3 + 4 + |1 + 2 + 3 + 4 + )

H  |x-x-x-x-x-x-x-x-|x-x-x-x-x-x-x-x-|x-x-x-x-x-x-x-x-|x-x-x-x-x-x-x-x-|
S. |----o-------o---|----o-------o---|----o-------o---|----o-------o---|
B. |0-------0-------|0-------0-------|0-------0-------|0-------0-------|
   (1 + 2 + 3 + 4 + |1 + 2 + 3 + 4 + |1 + 2 + 3 + 4 + |1 + 2 + 3 + 4 + )

H  |x-x-x-x-x-x-x-x-|x-x-x-x-x-x-x-x-|x-x-x-x-x-x-x-x-|x-x-x-x-x-x-x-x-|
S. |----o-------o---|----o-------o---|----o-------o---|----o-------o---|
B. |0-------0-------|0-------0-------|0-------0-------|0-------0-------|
   (1 + 2 + 3 + 4 + |1 + 2 + 3 + 4 + |1 + 2 + 3 + 4 + |1 + 2 + 3 + 4 + )

H  |x-x-x-x-x-x-x-x-|x-x-x-x-x-x-x-x-|x-x-x-x-x-x-x-x-|x-x-x-x-x-x-x-x-|
S. |----o-------o---|----o-------o---|----o-------o---|----o-------o---|
B. |0-------0-------|0-------0-------|0-------0-------|0-------0-------|
   (1 + 2 + 3 + 4 + |1 + 2 + 3 + 4 + |1 + 2 + 3 + 4 + |1 + 2 + 3 + 4 + )

 Verso 1

C  |X---------------|----------------|----------------|----------------|
H  |--x-x-x-x-x-x-x-|x-x-x-x-x-x-x-x-|x-x-x-x-x-x-x-x-|x-x-x-x-x-x-x-x-|
S. |----o-------o---|----o-------o---|----o-------o---|----o-------o---|
B. |0-------0-------|0-------0-------|0-------0-------|0-------0-------|
   (1 + 2 + 3 + 4 + |1 + 2 + 3 + 4 + |1 + 2 + 3 + 4 + |1 + 2 + 3 + 4 + )

H  |x-x-x-x-x-x-x-x-|x-x-x-x-x-x-x-x-|x-x-x-x-x-x-x-x-|x-x-x-x-x-x-x-x-|
S. |----o-------o---|----o-------o---|----o-------o---|----o-------o---|
B. |0-------0-------|0-------0-------|0-------0-------|0-------0-------|
   (1 + 2 + 3 + 4 + |1 + 2 + 3 + 4 + |1 + 2 + 3 + 4 + |1 + 2 + 3 + 4 + )


Verso 2

C  |X---------------|----------------|----------------|----------------|
H  |--x-x-x-x-x-x-x-|x-x-x-x-x-x-x-x-|x-x-x-x-x-x-x-x-|x-x-x-x-x-x-x-x-|
S. |----o-------o---|----o-------o---|----o-------o---|----o-------o---|
B. |0-------0-------|0-------0-------|0-------0-------|0-------0-------|
   (1 + 2 + 3 + 4 + |1 + 2 + 3 + 4 + |1 + 2 + 3 + 4 + |1 + 2 + 3 + 4 + )

H  |x-x-x-x-x-x-x-x-|x-x-x-x-x-x-x-x-|x-x-x-x-x-x-x-x-|x-x-x-x---------|
T  |----------------|----------------|----------------|--------------o-|
S. |----o-------o---|----o-------o---|----o-------o---|----o---ooooo---|
B. |0-------0-------|0-------0-------|0-------0-------|0---------------|
   (1 + 2 + 3 + 4 + |1 + 2 + 3 + 4 + |1 + 2 + 3 + 4 + |1 + 2 + 3 + 4 + )

CORO: 

C  |X---------------|----------------|----------------|----------------|
H  |--x-x-x-x-x-x-x-|x-x-x-x-x-x-x-x-|x-x-x-x-x-x-x-x-|x-x-x-x-x-x-x-x-|
S. |----o-------o---|----o-------o---|----o-------o---|----o-------o---|
B. |0-------0-------|0-------0-------|0-------0-------|0-------0-------|
   (1 + 2 + 3 + 4 + |1 + 2 + 3 + 4 + |1 + 2 + 3 + 4 + |1 + 2 + 3 + 4 + )

H  |x-x-x-x-x-x-x-x-|x-x-x-x-x-x-x-x-|x-x-x-x-x-x-x-x-|----------------|
T  |----------------|----------------|----------------|--o---o---o---o-|
S. |----o-------o---|----o-------o---|----o-------o---|oo--oo--oo--oo--|
B. |0-------0-------|0-------0-------|0-------0-------|----------------|
   (1 + 2 + 3 + 4 + |1 + 2 + 3 + 4 + |1 + 2 + 3 + 4 + |1 + 2 + 3 + 4 + )

C  |X---------------|----------------|----------------|----------------|
H  |--x-x-x-x-x-x-x-|x-x-x-x-x-x-x-x-|x-x-x-x-x-x-x-x-|x-x-x-x-x-x-x-x-|
S. |----o-------o---|----o-------o---|----o-------o---|----o-------o---|
B. |0-------0-------|0-------0-------|0-------0-------|0-------0-------|
   (1 + 2 + 3 + 4 + |1 + 2 + 3 + 4 + |1 + 2 + 3 + 4 + |1 + 2 + 3 + 4 + )

H  |x-x-x-x-x-x-x-x-|x-x-x-x-x-x-x-x-|x-x-x-x-x-x-x-x-|x-x-x-x---------|
T  |----------------|----------------|----------------|----------o--o--|
S. |----o-------o---|----o-------o---|----o-------o---|----o--o--------|
B. |0-------0-------|0-------0-------|0-------0-------|0---------------|
   (1 + 2 + 3 + 4 + |1 + 2 + 3 + 4 + |1 + 2 + 3 + 4 + |1 + 2 + 3 + 4 + )


 Verso 3

C  |X---------------|----------------|----------------|----------------|
H  |--x-x-x-x-x-x-x-|x-x-x-x-x-x-x-x-|x-x-x-x-x-x-x-x-|x-x-x-x-x-x-x-x-|
S. |----o-------o---|----o-------o---|----o-------o---|----o-------o---|
B. |0-------0-------|0-------0-------|0-------0-------|0-------0-------|
   (1 + 2 + 3 + 4 + |1 + 2 + 3 + 4 + |1 + 2 + 3 + 4 + |1 + 2 + 3 + 4 + )

H  |x-x-x-x-x-x-x-x-|x-x-x-x-x-x-x-x-|x-x-x-x-x-x-x-x-|x-x-x-x-x-x-x-x-|
S. |----o-------o---|----o-------o---|----o-------o---|----o-------o---|
B. |0-------0-------|0-------0-------|0-------0-------|0-------0-------|
   (1 + 2 + 3 + 4 + |1 + 2 + 3 + 4 + |1 + 2 + 3 + 4 + |1 + 2 + 3 + 4 + )


Verso 4

C  |X---------------|----------------|----------------|----------------|
H  |--x-x-x-x-x-x-x-|x-x-x-x-x-x-x-x-|x-x-x-x-x-x-x-x-|x-x-x-x-x-x-x-x-|
S. |----o-------o---|----o-------o---|----o-------o---|----o-------o---|
B. |0-------0-------|0-------0-------|0-------0-------|0-------0-------|
   (1 + 2 + 3 + 4 + |1 + 2 + 3 + 4 + |1 + 2 + 3 + 4 + |1 + 2 + 3 + 4 + )

H  |x-x-x-x-x-x-x-x-|x-x-x-x-x-x-x-x-|x-x-x-x-x-x-x-x-|x-x-x-x---------|
T  |----------------|----------------|----------------|--------------o-|
S. |----o-------o---|----o-------o---|----o-------o---|----o---ooooo---|
B. |0-------0-------|0-------0-------|0-------0-------|0---------------|
   (1 + 2 + 3 + 4 + |1 + 2 + 3 + 4 + |1 + 2 + 3 + 4 + |1 + 2 + 3 + 4 + )

CORO: 

C  |X---------------|----------------|----------------|----------------|
H  |--x-x-x-x-x-x-x-|x-x-x-x-x-x-x-x-|x-x-x-x-x-x-x-x-|x-x-x-x-x-x-x-x-|
S. |----o-------o---|----o-------o---|----o-------o---|----o-------o---|
B. |0-------0-------|0-------0-------|0-------0-------|0-------0-------|
   (1 + 2 + 3 + 4 + |1 + 2 + 3 + 4 + |1 + 2 + 3 + 4 + |1 + 2 + 3 + 4 + )

H  |x-x-x-x-x-x-x-x-|x-x-x-x-x-x-x-x-|x-x-x-x-x-x-x-x-|----------------|
T  |----------------|----------------|----------------|--o---o---o---o-|
S. |----o-------o---|----o-------o---|----o-------o---|oo--oo--oo--oo--|
B. |0-------0-------|0-------0-------|0-------0-------|----------------|
   (1 + 2 + 3 + 4 + |1 + 2 + 3 + 4 + |1 + 2 + 3 + 4 + |1 + 2 + 3 + 4 + )

C  |X---------------|----------------|----------------|----------------|
H  |--x-x-x-x-x-x-x-|x-x-x-x-x-x-x-x-|x-x-x-x-x-x-x-x-|x-x-x-x-x-x-x-x-|
S. |----o-------o---|----o-------o---|----o-------o---|----o-------o---|
B. |0-------0-------|0-------0-------|0-------0-------|0-------0-------|
   (1 + 2 + 3 + 4 + |1 + 2 + 3 + 4 + |1 + 2 + 3 + 4 + |1 + 2 + 3 + 4 + )

H  |x-x-x-x-x-x-x-x-|x-x-x-x-x-x-x-x-|x-x-x-x-x-x-x-x-|x-x-x-x---------|
T  |----------------|----------------|----------------|----------o--o--|
S. |----o-------o---|----o-------o---|----o-------o---|----o--o--------|
B. |0-------0-------|0-------0-------|0-------0-------|0---------------|
   (1 + 2 + 3 + 4 + |1 + 2 + 3 + 4 + |1 + 2 + 3 + 4 + |1 + 2 + 3 + 4 + )


Solo de Guitarra

C  |X---------------|----------------|----------------|----------------|
H  |--x-x-x-x-x-x-x-|x-x-x-x-x-x-x-x-|x-x-x-x-x-x-x-x-|x-x-x-x-x-x-x-x-|
S. |----o-------o---|----o-------o---|----o-------o---|----o-------o---|
B. |0-------0-------|0-------0-------|0-------0-------|0-------0-------|
   (1 + 2 + 3 + 4 + |1 + 2 + 3 + 4 + |1 + 2 + 3 + 4 + |1 + 2 + 3 + 4 + )

H  |x-x-x-x-x-x-x-x-|x-x-x-x-x-x-x-x-|x-x-x-x-x-x-x-x-|x-x-x-x-x-x-x-x-|
S  |----o-------o---|----o-------o---|----o-------o---|----o-------o---|
B  |0-------0-------|0-------0-------|0-------0-------|0-------0-------|
   (1 + 2 + 3 + 4 + |1 + 2 + 3 + 4 + |1 + 2 + 3 + 4 + |1 + 2 + 3 + 4 + )

C  |----------------|----------------|X---------------|----------------|
H  |x-x-x-x-x-x-x-x-|x-x-x-x-x-x-x-x-|--x-x-x-x-x-x-x-|x-x-x-x-x-x-x-x-|
S  |----o-------o---|----o-------o---|----o-------o---|----o-------o---|
B  |0-------0-------|0-------0-------|0-------0-------|0-------0-------|
   (1 + 2 + 3 + 4 + |1 + 2 + 3 + 4 + |1 + 2 + 3 + 4 + |1 + 2 + 3 + 4 + )

C  |X---------------|----------------|X---------------|----------------|
H  |--x-x-x-x-x-x-x-|x-x-x-x-x-x-x-x-|--x-x-x-x-x-x-x-|x-x-x-x---------|
T  |----------------|----------------|----------------|----------o---o-|
S  |----o-------o---|----o-------o---|----o-------o---|----o---oo--o---|
B  |0-------0-------|0-------0-------|0-------0-------|0---------------|
   (1 + 2 + 3 + 4 + |1 + 2 + 3 + 4 + |1 + 2 + 3 + 4 + |1 + 2 + 3 + 4 + )

   Verso 5
 
C  |X---------------|----------------|----------------|----------------|
H  |--x-x-x-x-x-x-x-|x-x-x-x-x-x-x-x-|x-x-x-x-x-x-x-x-|x-x-x-x-x-x-x-x-|
S. |--------o-------|--------o-------|--------o-------|--------o-------|
B. |0-------------0-|0-0-------------|0-------------0-|0-0-------------|
   (1 + 2 + 3 + 4 + |1 + 2 + 3 + 4 + |1 + 2 + 3 + 4 + |1 + 2 + 3 + 4 + )

H  |x-x-x-x-x-x-x-x-|x-x-x-x-x-x-x-x-|x-x-x-x-x-x-x-x-|x-x-x-x-x-x-x-x-|
S  |--------o-------|--------o-------|--------o-------|--------o-------|
B  |0-------------0-|0-0-------------|0-------------0-|0-0-------------|
   (1 + 2 + 3 + 4 + |1 + 2 + 3 + 4 + |1 + 2 + 3 + 4 + |1 + 2 + 3 + 4 + )


H  |x-x-x-x-x-x-x-x-|x-x-x-x-x-x-x-x-|x-x-x-x-x-x-x-x-|x-x-x-x-x-x-x-x-|
S  |----o-------o---|----o-------o---|----o-------o---|----o-------o---|
B  |0-------0-------|0-------0-------|0-------0-------|0-------0-------|
   (1 + 2 + 3 + 4 + |1 + 2 + 3 + 4 + |1 + 2 + 3 + 4 + |1 + 2 + 3 + 4 + )

         
                                       CORO
          
C  |----------------|----------------|X---------------|----------------|
H  |----------------|----------------|--x-x-x-x-x-x-x-|x-x-x-x-x-x-x-x-|
T  |----------------|o-o-------------|----------------|----------------|
S  |o-o-o-o-o-o-o-o-|------------f---|----o-------o---|----o-------o---|
F  |o-o-o-o-o-o-o-o-|----------------|----------------|----------------|
B  |----------------|----------------|0-------0-------|0-------0-------|
   (1 + 2 + 3 + 4 + |1 + 2 + 3 + 4 + |1 + 2 + 3 + 4 + |1 + 2 + 3 + 4 + )


H  |x-x-x-x-x-x-x-x-|x-x-x-x-x-x-x-x-|x-x-x-x-x-x-x-x-|x-x-x-x-x-x-x-x-|
S  |----o-------o---|----o-------o---|----o-------o---|----o-------o---|
B  |0-------0-------|0-------0-------|0-------0-------|0-------0-------|
   (1 + 2 + 3 + 4 + |1 + 2 + 3 + 4 + |1 + 2 + 3 + 4 + |1 + 2 + 3 + 4 + )


C  |----------------|----------------|X---------------|----------------|
H  |x-x-x-x-x-x-x-x-|x-x-x-x---------|--x-x-x-x-x-x-x-|x-x-x-x-x-x-x-x-|
T  |----------------|----------------|----------------|----------------|
S  |----o-------o---|----o---o-o-o-o-|----o-------o---|----o-------o---|
F  |----------------|--------o-o-o-o-|----------------|----------------|
B  |0-------0-------|0---------------|0-------0-------|0-------0-------|
   (1 + 2 + 3 + 4 + |1 + 2 + 3 + 4 + |1 + 2 + 3 + 4 + |1 + 2 + 3 + 4 + )


H  |x-x-x-x-x-x-x-x-|x-x-x-x-x-x-x-x-|x-x-x-x-x-x-x-x-|x-x-x-x-x-x-x-x-|
S  |----o-------o---|----o-------o---|----o-------o---|----o-------o---|
B  |0-------0-------|0-------0-------|0-------0-------|0-------0-------|
   (1 + 2 + 3 + 4 + |1 + 2 + 3 + 4 + |1 + 2 + 3 + 4 + |1 + 2 + 3 + 4 + )

C  |----------------|----------------|----------------|X---------------|
H  |o-o-o-o-o-o-o---|o-o-o-o-o-o-o---|o-o-o-o-o-o---o-|----------------|
S  |o-----o---o-o---|o-----o---o-o---|o-----o---o---o-|----------------|
B  |--0-0---0-------|--0-0---0-------|--0-0---0-------|0---------------|
   (1 + 2 + 3 + 4 + |1 + 2 + 3 + 4 + |1 + 2 + 3 + 4 + |1 + 2 + 3 + 4 + )
Suggest correction
Give kudos to tab author, rate the tab!
1 2 3 4 5
comments
print report bad tab
guest
You may want to rate the tab now too:
select rating
Wanna post a correction for this tab? Suggest correction