Oops, an error
Loading. Please wait.

Placebo Tab

19 views 1 this week
no commentswrite comment
1 2 3 4 5
3 more votes to show rating
add to favorites
×
Save as Personal and add changes to this tab that will be seen only by you. Learn more ›
×
You can save this tab as Personal to edit and correct it or add notes. All changes will be seen only by you. Learn more »
save as personal
new!
launch autoscroll
font size
0
reset
how to read this tab
guitar tuner
Autoscroll
slow
fast
+/-
esc
set tempo
stop
____ acordes ____________
|                       |
| Bm:    224432         |
| G:     320003         |
| D:     000232         |
| A:     002220         |
| Asus4: 000230         |
|_______________________|


Bm     G     D     A


[intro]:
    Bm                   G
F-||--------------------|--------------------|
B-||-----------------2--|3----------2--3--2--|
G-||4-------------4-----|--------------------|
D-||--------------------|--------------------|
A-||--------------------|--------------------|
F-||--------------------|--------------------|

    D                    A
F-||--------------------|--------------------|
B-||3------------------5s2-------------------|
G-||--------------------|--------------------|
D-||--------------------|--------------------|
A-||--------------------|--------------------|
F-||--------------------|--------------------|


    Bm                   G
F-||--------------------|--------------------|
B-||--------------------|--------------------|
G-||4-------------4--2--|0-------------------|
D-||--------------------|--------------------|
A-||--------------------|--------------------|
F-||--------------------|--------------------|

    D                    A
F-||-----2--------------|-----0--------------|
B-||----3---------------|----2---------------|
G-||---2----------------|---2----------------|
D-||--0-----------------|--2-----------------|
A-||-0------------------|-0------------------|
F-||0-------------------|0-------------------|


Bm       G         D
   No dejaba de sonar
        A                Bm
   la alarma de aquel lugar,
      G                 D     A
   hiciste de mí un ladrón.  [punteo1]


[punteo1]:
    A                    Bm
F-||--------------------|-----2--
B-||------2--3-----2----|----3---
G-||2--4----------------|---4----
D-||--------------------|--4-----
A-||--------------------|-2------
F-||--------------------|2-------


Bm        G          D
   Nunca deja de llover
              A          Bm
   cuando es necesario huir
            G           D     A
   o si te dejan de querer.

D          Asus4       Bm  G
   Pisé a fondo el acelerador,
D         Asus4         Bm       G
   en ningún momento dejé de pensar:
A         Bm       G         D
   Sólo fui un placebo para ti,  [punteo2]
A       Bm        G
   un amor de fogueo.


[punteo2]:
    A                    A
F-||-------2--3-----2---|-----0--
B-||3--5----------------|----2---
G-||--------------------|---2----
D-||--------------------|--2-----
A-||--------------------|-0------
F-||--------------------|0-------


Bm     G     D     A
[intro]


Bm        G           D
   En el centro comercial
        A             Bm
   leo la oferta del mes:
            G          D     A
   "Lleva tres y paga dos".

Bm        G                D
   En el centro de mi corazón
        A           Bm
   la oferta dice así:
           G         D     A
   "Lleva nada y paga mil".


D          Asus4     Bm            G
   No te quise entender... ¿para qué?
D          Asus4     Bm            G
   No me quise defender... ¿para qué?
A         Bm       G         D
   Sólo fui un placebo para ti,   [punteo2]
A       Bm        G
   un amor de fogueo.


[solo, x2]:
    Bm                   G
F-||--------------------|--------------------|
B-||-----------------2--|3----------2--3--2--|
G-||4-------------4-----|--------------------|
D-||--------------------|--------------------|
A-||--------------------|--------------------|
F-||--------------------|--------------------|

    Bm                   G
F-||--------------------|--------------------|
B-||--------------------|2h3--3----------2h3-|
G-||4-------------4-----|--------------------|
D-||--------------------|--------------------|
A-||--------------------|--------------------|
F-||--------------------|--------------------|

    Bm                   A
F-||----------------0-2-|5------3------------|
B-||--------------3-----|------------5-------|
G-||4-------------------|--6------4----------|
D-||--------------------|--------------------|
A-||--------------------|--------------------|
F-||--------------------|--------------------|

    G                    G
F-||------------0---2---|0---2---------------|
B-||------2--3----------|--------------3--2--|
G-||2--4----------------|--------------------|
D-||--------------------|--------------------|
A-||--------------------|--------------------|
F-||--------------------|--------------------|


D          Asus4     Bm            G
   No te quise entender... ¿para qué?
D          Asus4     Bm            G
   No me quise defender... ¿para qué?
D          Asus4     Bm    G
   No te quise entender..., no
D          Asus4     Bm    G
   No me quise defender...
A         Bm       G         D   [punteo2]
   Sólo fui un placebo para ti,
A       Bm        G
   un amor de fogueo.


A     Bm     G     D

A     Bm     G

G


###------------------------------###
### Tablatura de: Enrique Moraño ###
### Sevilla [Spain]     OCT-2006 ###
###      emorano@     ###
###------------------------------###
Suggest correction
Give kudos to tab author, rate the tab!
1 2 3 4 5
comments
print report bad tab
guest
Wanna post a correction for this tab? Suggest correction