Oops, an error
Loading. Please wait.
26 views 1 this week
no commentswrite comment
1 2 3 4 5
3 more votes to show rating
add to favorites
launch autoscroll
font size
0
reset
how to read this tab
guitar tuner
×
Best way to learn
"Seda"
Autoscroll
slow
fast
+/-
esc
set tempo
stop
(Para Cristina, porque aún pienso que me debes una oportunidad,
 y me gustaría aprovecharla...)

A:  002220
Fm#:244222
D:  000232
E:  022100

A   F#m
A   F#m
D   E
D   E
D   E
D   E

A                  F#m            
   Leo seda cuando miro tus manos
A                        F#m            
   Y siento que es la primera palabra 
D                 E
   Que aprendí a leer
D                 E
   Que aprendí a creer
A                 F#m            
   Tu me sedas a tu manera
A                  F#m            
   Con un poco de mano izquierda
D                   E
   Y no me importa por que
D                 E
   No me importa por que

     A
Encadename y liberame
  F#m            
Acercate y luego alejate
   D
Enciendeme apagandome
       E
Y no guardes nada para después

A   F#m
A   F#m

A                        F#m
   Calles desiertas, desiertos callados
A                     F#m
   Nunca acierto con las palabras
D                   E
   Cuando hablo de tí
D                   E
   Cuando hablo de tí
A                        F#m
   Abrazo el aire que has abrazado
A                    F#m
   Nunca acierto con el momento
D                  E
   Cuando voy por tí
D                  E
   Cuando voy por tí

      A
Dame todo lo que me puedas dar
      F#m
Dame todo lo que no debas dar
    D
Encuentrame y luego pierdeme
      E
Y castigame perdonandome

[solo]
      A            F#m        A            F#m
E-||--5/7--7/9--9--7/9--------5/7--9-9--7--9-9---
B-||---------------------------------------------
G-||--6/7--7/9--9--7/9--------6/7--9-9--7--9-9---
D-||---------------------------------------------
A-||---------------------------------------------
E-||---------------------------------------------


               D          E             D                   E
E-||--12-12--12/14----12-----14-12--------7/9--9--9--7--5--5/7--9---
B-||-------------------------------12-------------------------------
G-||--------------------------------------7/9--9--9--7--6--6/7--9---
D-||----------------------------------------------------------------
A-||----------------------------------------------------------------
E-||----------------------------------------------------------------

     A
Encadename y liberame
  F#m
Acercate y luego alejate
    D
Enciendeme apagandome
       E
Y no guardes nada para después
      A
Dame todo lo que me puedas dar
      F#m
Dame todo lo que no debas dar
    D
Encuentrame luego pierdeme
      E
Y castigame perdonandome


A   F#m            A      F#m       
        Seda en tus manos
                  A      F#m       
Cuando llego hasta tí
                  A      F#m       
Cuando llego hasta tí

       (A)              A
E-||---(5)-------5------5---
B-||---(5)-----5---5----5---
G-||---(6)---6-------6--6---
D-||---(7)-7------------7---
A-||---(7)--------------7---
E-||---(5)--------------5---


###--------------------------------###
### Tablatura de:  Enrique Moraño  ###
###  Sevilla [España]  para ATAME  ###
### emorano@   ABR-2003 ###
###--------------------------------###
Suggest correction
Give kudos to tab author, rate the tab!
1 2 3 4 5
comments
print report bad tab
guest
You may want to rate the tab now too:
select rating
Wanna post a correction for this tab? Suggest correction