Oops, an error
Loading. Please wait.

Sweet Home Louisiana Tab

33 views 1 this week
no commentswrite comment
1 2 3 4 5
3 more votes to show rating
add to favorites
launch autoscroll
font size
0
reset
how to read this tab
guitar tuner
×
Best way to learn
"Sweet Home Louisiana"
Autoscroll
slow
fast
+/-
esc
set tempo
stop
____ acordes _____
|                |
| D:    000232   |
| G:    320003   |
| A:    002220   |
| C:    032010   |
| Bm:   224432   |
|________________|


[intro]:
     D                    D
E-||-----------2--3---1-|-------------2--3---1-|
B-||-3--3---------------|-3--3-----------------|
G-||--------------------|----------------------|
D-||--------------------|----------------------|
A-||--------------------|----------------------|
E-||--------------------|----------------------|   [x2]

D                       G
De aquella noche no recuerdo casi nada
 A                         G           D
sólo a un hombre que no paraba de sangrar
                             G
Alguien desde un sexto piso dice que me vió
    A                   G           D
y fué el único testigo de la acusación
              A              G
Y el color naranja y alma de electricidad
       D               A             G           D
en el corredor de la suerte, oh, se va otro día más


Bm             A                       G                 D
   Un juez le dijo a mi padre que esa noche yo estaba allí
Bm          A                     G                  D
   Y que si un hombre muere otro hombre tiene que morir

G                   D
   Sweet home Louisiana,
Bm                        A
   tres palabras en la pared
G                   D    Bm
   Sweet home Louisiana,
D            G   A   D
   hoy no veré amanecer


                            G
Yo llamé a una ambulancia que tardó en llegar
      A                   G           D
mientras el asesino dormiría en un motel
        A          G
Ojo por ojo, crueldad por crueldad
       D               A             G            D
en el corredor de la suerte, oh, se va otra vida más

Bm             A                     G                     D
   Un juez le dijo a mi madre que dejase de una vez de llorar
Bm              A               G                     D
   Y que fuese tan amable de decir dónde compró su fulag

G                   D
   Sweet home Louisiana,
Bm                      A
   decidle que él volverá
G                   D    Bm
   Sweet home Louisiana,
D           G   A   D
   él sí verá amanecer


[solo]:
     D                    G
E-||-------------5--10-5h7----------------7----|
B-||-------5--7---------|----------------------|
G-||7-------------------|----------------------|
D-||--------------------|----------------------|
A-||--------------------|----------------------|
E-||--------------------|----------------------|

     A                    G          D
E-||-5------------------|----------------------|
B-||--------5--------7--|8--8--8-7-5-----7-8-7-|
G-||--------------------|------------7---------|
D-||--------------------|----------------------|
A-||--------------------|----------------------|
E-||--------------------|----------------------|   [x2]


G                   D
   Sweet home Louisiana,
Bm                        A
   tres palabras en la pared
G                   D    Bm
   Sweet home Louisiana,
D            G   A   D
   hoy no veré amanecer

G                   D
   Sweet home Louisiana,
Bm                        A
   tres palabras en la pared
G                   D    Bm
   Sweet home Louisiana,
D            G   A   D
   hoy no veré amanecer

             G   A   D
   hoy no veré amanecer
             G   A   D
   hoy no veré amanecer


###------------------------------###
### Tablatura de: Enrique Moraño ###
### Sevilla [Spain]     OCT-2006 ###
###      emorano@     ###
###------------------------------###
Suggest correction
Give kudos to tab author, rate the tab!
1 2 3 4 5
comments
print report bad tab
guest
You may want to rate the tab now too:
select rating
Wanna post a correction for this tab? Suggest correction