Oops, an error
Loading. Please wait.

Todo Llega Chords

5 views 1 this week
no commentswrite comment
1 2 3 4 5
3 more votes to show rating
add to favorites
×
Save as Personal and add changes to this tab that will be seen only by you. Learn more ›
×
You can save this tab as Personal to edit and correct it or add notes. All changes will be seen only by you. Learn more »
save as personal
new!
launch autoscroll
font size
0
reset
transpose
0
reset
display chords
guitar tuner
Autoscroll
slow
fast
+/-
esc
set tempo
stop
Strumming
There is no strumming pattern for this song yet. and get +5 IQ
____ acordes ____________
|                       |
| C:    032010          |
| F:    133211          |
| Am:   002210          |
| G:    320003          |
| Dm:   000231          |
|_______________________|


C     F  (x2)

 C                           F
Di una vuelta al mundo y ninguna a tu corazón.
     Am                          G
Compré un billete que me traicionó.
    C                  F
En mi viaje de ida tardé un minuto o dos,
 Am                          G
no sé cuánto emplearé en volver
      F Am G
a tu la-a-do,
      F Am G
a tu la-a-do.


 C            G         F         C
Sé que todo llega si quieres esperar,
      Am     C         F         G
todo sabe mejor si lo dejas enfriar.
     C            G          Dm         C
Hay cosas que no son lo que pueden parecer,
       Am     G       F     C
el secreto está en saber mirar.


    C                            F
El barro en los zapatos es otra cosa en realidad;
    Am                              G
pequeños accidentes de andar sin mirar.
     C                      F
Pero encontrarme contigo es el mejor final
 Am                             G
para un viaje que no debió empezar.
F     Am     G

F     Am     G


 C            G           F         C
Sé que todo llega cuando sabes esperar,
  Am               C            F          G
puedo viajar cien vidas sin llegarme a cansar.
       C        G          Dm           C
Descarrila mi tren cuando pase junto a ti,
    Am  G         F   C
asegúrate de que parará.


[solo]:
                         C                    F
F-||--------------------|--------------------|--------------------|
B-||--------------------|--------------------|--------------------|
G-||--------------------|--------------------|--------------------|
D-||----------------5---|5---------------5--7s9---------------5--7s
A-||----------5--7------|----------5--7------|----------5--7------|
F-||--------------------|--------------------|--------------------|

    Am                   G
F-||--------------------|--------------------|
B-||--------------------|--------------------|
G-||-----10-------------|--------------------|
D-||9----------9--------|--------------------|
A-||--------------10--10s12------------------|
F-||--------------------|--------------------|

    C                    F
F-||--------------------|--------------------|
B-||--------------------|--------------------|
G-||7h9------7h9-7-----9h10------------------|
D-||---------------10---|--------------------|
A-||--------------------|--------------------|
F-||--------------------|--------------------|

    Am                   G
F-||--------------------|---------3s7---15---|
B-||--------------------|--------------------|
G-||7h9------7h9-7------|7-------------------|
D-||---------------10---|--------------------|
A-||--------------------|--------------------|
F-||--------------------|--------------------|

F   Am  G
Uh, uh, uh
F   Am  G
Uh, uh, uh


 C            G         F         C
Sé que todo llega si quieres esperar,
      Am     C         F         G
todo sabe mejor si lo dejas enfriar.
     C            G          Dm         C
Hay cosas que no son lo que pueden parecer,
       Am     G       F     C
el secreto está en saber mirar.


 C            G           F         C
Sé que todo llega cuando sabes esperar,
  Am               C          F         G
puedo viajar cien vidas si decides esperar.
       C        G          Dm           C
Descarrila mi tren cuando pase junto a ti,
    Am  G             F   C
asegúrate de que me quedaré.


###------------------------------###
### Tablatura de: Enrique Moraño ###
### Sevilla [Spain]     OCT-2006 ###
###      emorano@     ###
###------------------------------###
Suggest correction
Give kudos to tab author, rate the tab!
1 2 3 4 5
comments
print report bad tab
guest
Wanna post a correction for this tab? Suggest correction