Oops, an error
Loading. Please wait.

Dust chords

85 views 1 this week
no commentswrite comment
1 2 3 4 5
2 more votes to show rating
add to favorites
×
Save as Personal and add changes to this tab that will be seen only by you. Learn more ›
×
You can save this tab as Personal to edit and correct it or add notes. All changes will be seen only by you. Learn more »
launch autoscroll
font size
0
reset
transpose
0
reset
simplify chords
display chords
guitar tuner
edit
Autoscroll
slow
fast
+/-
esc
set tempo
stop
About this tab version
I believe it's the correct tuning and way to play this song, worked it out from the few videos of it being played live. Was this info helpful? Yes No
Strumming
There is no strumming pattern for this song yet. and get +5 IQ
[Dsus phrase 1]
D |---------------------------------------------------------------------------|
A |---------------------------------------------------------------------------|
F#|---------------------------------------------------------------------------|
D |--2/4-2-0--0-0--0--0-0--0--0-0-x-------------------------------------------|
A |--2/4-2-0--0-0--0--0-0--0--0-0-x---------------------------x2--------------|
D |--2/4-2-0--0-0--0--0-0--0--0-0-x-------------------------------------------|

[F#sus2 phrase 2]
D |---------------------------------------------------------------------------|
A |---------------------------------------------------------------------------|
F#|---------------------------------------------------------------------------|
D |--2\0-2-4--4-4--4--4-4--4--4-4-x-------------------------------------------|
A |--2\0-2-4--4-4--4--4-4--4--4-4-x---------------------------x2--------------|
D |--2\0-2-4--4-4--4--4-4--4--4-4-x-------------------------------------------|

Phrases 1 & 2 are the intro and are also the strumming patterns for the entire song. 
Where it says Dsus or F#sus2 it basically means to play the phrase that coordinates with the chord.

[Chords] 
     Dsus      F#sus2       C#m11
D |-------------------------2-------------------------------------------------|
A |-------------------------2-------------------------------------------------|
F#|-------------------------2-------------------------------------------------|
D |--0----------2-----------4-------------------------------------------------|
A |--0----------2-----------4-------------------------------------------------|
D |--0----------2-----------4-------------------------------------------------|

[Intro]

Dsus F#sus2 

[Chorus 1]
Dsus
Dust on the saddle

Summer city zone said no
F#sus2
Rot in the bladder

Piss it out when you grow old


[Verse]
Dsus
Sweaty hands deceive you

One night less than enough to greet
F#sus2
Sound of summer romance

Out of tune as it repeats


[Chorus 2]
Dsus
So if you knew

How we fell into
F#sus2
Things are easy cried

Things are easy cried


[Verse]
Dsus
Sun burns its cross in

Eyes bloodshot and crucified
F#sus2
Stumbling

Finding out you flew too high


[Chorus 1]
Dsus
Dust on the saddle

Summer city zone said no
F#sus2
Rot in the bladder

Piss it out when you grow old


[Chorus 2]
Dsus
So if you knew

How we fell into
F#sus2
Things are easy cried

Things are easy cried
 
Dsus


[Break]
C#m11
Oooh we know

Summer's gonna set so slow
Dsus
It's just the wheels keep turning

Summer's gonna set slow
C#m11
Oooh we know

Summer's gonna set so slow
Dsus
It's just the wheels keep turning

Summer's gonna set slow

[Chorus 1]
Dsus
Dust on the saddle

Summer city zone said no
F#sus2
Rot in the bladder

Piss it out when you grow old


[Chorus 2]
Dsus
So if you knew

How we fell into
F#sus2
Things are easy cried

Things are easy cried


[Break]
C#m11
Oooh we know

Summer's gonna set so slow
Dsus
It's just the wheels keep turning

Summer's gonna set slow
C#m11
Oooh we know

Summer's gonna set so slow
Dsus
It's just the wheels keep turning
NC
Summer's gonna set slow
Dsus
Oh oh oh oh



************************************

| x   Dead note
| /   Slide up
| \   Slide down


************************************

            
            
Suggest correction
Creating personal tab
Creating personal tab
You can edit any tab online and save it as your Personal.

You can edit, replace or remove any tab part or add personal notes – all changes will be seen only by you.

Personal tabs can be accessed anytime from any device, even offline.
Learn more »
Give kudos to tab author, rate the tab!
1 2 3 4 5
comments
print report bad tab
guest
You may want to rate the tab now too:
select rating
Wanna post a correction for this tab? Suggest correction