Oops, an error
Loading. Please wait.

Chicles, Cigarrillos, Caramelos Tab

83 views 1 this week
no commentswrite comment
1 2 3 4 5
3 more votes to show rating
add to favorites
launch autoscroll
font size
0
reset
how to read this tab
guitar tuner
×
Best way to learn
"Chicles, Cigarrillos, Caramelos"
Autoscroll
slow
fast
+/-
esc
set tempo
stop
intro: E - B - A - B

       E - B - A

Estrofas :
      E           B       A   B
 chicles cigarrillos caramelos
E       B     A
toffes menta fosforos
     E           B       A   B
chicles cigarrillos caramelos
E            B          A
 compre caserito por favor

E - B - A - B

E - B - A

E            B          A    B
de noche me voy a la escuela
E            B          A
la primaria voy a terminar
    E   B        A     B
de dia hago mis tareeeeas
E           B           A
 de tarde ayudo a mi mama

Coro:

 C#m             G#m     C#m               G#m
   salgo a trabajar        por toda la ciudad
A
vendo en la puerta del estadio
       B
luego voy al cine del barrio

E5 -  B5-A5   x4

Solo:

e ----------7--7--------------------------7--7--------------
b -9-9-9--9--9--10-10-8-7-0----9-9-9--9--9----10-10-8-7-----
g ---------------------------------------------------------- x2
d ----------------------------------------------------------
a ----------------------------------------------------------
e ----------------------------------------------------------

e --------------------------------11-----------------------
b -----------14--12-----------14-----12--------------------
g -13-13--13--13----13-13-13-------------14-14-14-13-11----
d ---------------------------------------------------------
a ---------------------------------------------------------
e ---------------------------------------------------------

e ------------------------11-------------------12--------------------------
b ---------------------14----12----12-------12----12-----------------------
g ----14-14-14-13-11------------13---13-14f----------14fp(12)h(14)p(12)-12-
d -14----------------------------------------------------------------------
a -------------------------------------------------------------------------
e -------------------------------------------------------------------------

solo repitan estrofas y coros que tienen el mismo orden y
acordes, y asi acaba la canción.
Suggest correction
Give kudos to tab author, rate the tab!
1 2 3 4 5
comments
print report bad tab
guest
You may want to rate the tab now too:
select rating
Wanna post a correction for this tab? Suggest correction