Oops, an error
Loading. Please wait.

Hoja Verde De La Coca Chords

70 views 1 this week
no commentswrite comment
1 2 3 4 5
3 more votes to show rating
add to favorites
×
Save as Personal and add changes to this tab that will be seen only by you. Learn more ›
×
You can save this tab as Personal to edit and correct it or add notes. All changes will be seen only by you. Learn more »
save as personal
new!
launch autoscroll
font size
0
reset
transpose
0
reset
display chords
guitar tuner
Autoscroll
slow
fast
+/-
esc
set tempo
stop
Strumming
There is no strumming pattern for this song yet. and get +5 IQ
INTRO:

-------12-12-12-12-15-12-17-17-17-17--17-17-17-15-17-15-15--
-13-15------------------------------------------------------
------------------------------------------------------------
------------------------------------------------------------
------------------------------------------------------------
------------------------------------------------------------

-15-15-15-17--17-15-------12---------------------------------
--------------------13-15----15-13----13---------------------
-----------------------------------14----14------------------
-------------------------------------------------------------
-------------------------------------------------------------
-------------------------------------------------------------

C
hoja verde de la coca
F                  C
humo blanco del cigarro
C
adivinenme la suerte
Am
compañeros de la vida

C
hoja verde de la coca
F                 C
humo blanco del cigarro
C
adivinenme la suerte
               Am
si esa chica me kiere

C
kien pudiera kerer tanto
        F            C
kien pudiera amarla asi
C
por k sigues engañando
                Am
el amor k yo te he dado
C
esos tus labios mentirosos
     F              C
esos tus ojos traicioneros
C
k no sigan k no sigan
                Am
engañando a todo el mundo
C
amorcito como el mio
     F               C
facilmente no se encuentrA
C
si se encuentra caro cuesta,
               Am
caro cuesta, poco dura

REPETIR INTRO:

!!!hojita verde de la coca
humo blanco del cigarro
adivinenme la suerte.

C
kien pudiera kerer tanto
   F                  C
kien pudiera amarla tanto
C
con las cosas k suceden
                   Am
yo me caso con kien viene
C
anda cantando anda diciendo
    F                  C
todo el mundo va repitiendo
C
k cuando me doy la vuelta
                    Am
tu ya me la estas haciendo
C
eoso tus labios mentirosos
   F                C
k andan bagando por el mundo
C
ke no sigan k no sigan
                   Am
engañando a todo el mundo
C
hojita verde de la coca
  F                  C
humito blanco del cigarro
C
adivinenme la suerte
                 Am
compañeros de la vida

C
hoja verde de la coca
F                 C
humo blanco del cigarro
C
adivinenme la suerte
               Am
si esa chica me kiere

C
hoja verde de la coca
F                 C
humo blanco del cigarro
C
adivinenme la suerte
               Am
si esa chica me kiere


YA TA ESO ES TODO ......... SALUDOS PA TODA LA GENTE K LE GUSTA
MA MUSICA PERUANA, ARRIBA PERU !!!!!!!!
Suggest correction
Give kudos to tab author, rate the tab!
1 2 3 4 5
comments
print report bad tab
guest
Wanna post a correction for this tab? Suggest correction