Oops, an error
Loading. Please wait.

A Solitary Swallow Tab

545 views 1 this week
no commentswrite comment
1 2 3 4 5
please rate
add to favorites
launch autoscroll
font size
0
reset
how to read this tab
guitar tuner
Tab Pro tools
  • play this tab
  • loop segment
  • change instrument
  • show fretboard
  • metronome
Autoscroll
slow
fast
+/-
esc
set tempo
stop
Contributor
A SOLITARY SWALLOW
lyrics by OElytis - music by Mikis Theodorakis - arranged by Architectonidis
(recorded by Mikis Theodorakis)

 tuning - E A D G B E

 Andante  2/4
 
|----0---0-|---0---0-||--0-0---0-0-|-5-0-3---2-|-5-5-3-2-0-2-|-3-------|
|----0---0-|---0---0-||--0---3-0---|-------0---|-5---0-------|---0---3-|
|----0---0-|---0---0-||*-0-----0---|---5---0---|-5---0-------|-----0---|
|-2--------|-2-------||*-2-----2---|-----------|-------------|-------0-|
|------2---|-----2---||--2-----2---|-0---------|-0-----------|---------|
|-0--------|-0-------||--0-----0---|-----0-----|-----0-------|-0-------|


|-0-0---0-0-|-5---3---2-|-5-5-5-3-5-2-0-|-0---0-2-|-3-3---3-3---|-3---7---|
|-0---3-0---|---5---0---|-5-----0-------|-0-3-----|-3---3-3---3-|-0---0---|
|-0-----0---|---5---0---|-5-----0-------|-0-------|-4-----4-----|-0---0---|
|-2-----2---|-----------|---------------|-2-0-2-4-|-5-----5-----|---0---0-|
|-2-----2---|-0---------|-0-------------|-2-------|-5-----5-----|---------|
|-0-----0---|-----0-----|-------0-------|-0-------|-3-----3-----|---------|


|-5-5-3-2-0-2-|-3---5-3-----|-3-3---3-3---|-3---5---|-0-0---7-7-5-|-5-3-5-7-|
|-5-5-0-------|-0-------3---|-3---3-3---3-|---0---5-|-0---3-0-----|---------|
|-5-5-0-------|-0---------0-|-4-----4-----|---0---5-|-0-----0-----|---------|
|-------------|---0---------|-5-----5-----|---------|-------------|-7-5-7-9-|
|-0-----------|---------2---|-5-----5-----|-----0---|-------------|---------|
|-----0-------|-------------|-3-----3-----|-0-------|-0-----0-----|---------|


|--8--8-7-10-8-7-5-|-3---0---|-5-5-5-3-5-2-0-|-0-------|-----0---2-|
|------------------|---0---0-|-5-----0-------|-0-------|-3-3---0---|
|------------------|---0---0-|-5-----0-------|-0-0-----|-------0---|
|-10-10-9--0-------|---------|---------------|-----4-2-|-0-4-------|
|------------------|---------|-0-------------|---------|-----------|
|------------------|-0---0---|-------0-------|-0-------|-----0-----|


|-5-3-2-0-0---|-7-7-5-5---3-|-5-3-2-3-5---|-----0---2-|-5-3-2-0-0---|
|-----------0-|-0-------0---|-5---------5-|-3-3---0---|-----------0-|
|-----------0-|-0-------0---|-5---------5-|-------0---|-----------0-|
|-----0-------|-------------|-------------|-0-4-2-----|-----0-------|
|-0-----------|-------0-----|-0-------0---|-----------|-0-------0---|
|---------0---|-0-----------|-------------|-----------|-------------|

               1.                        2.
|-5-5-7-3---5-|-2-3---2-0---|----------||-2-3-2---0---|
|-5-------0---|---0-------0-|---0---0--||---0---3---0-|
|-5-------0---|-2-----2---0-|---0---0-*||-2---2-----0-|
|-------------|-0---4---2---|-2-------*||-0-----4-2---|
|-0-----------|-------------|-----2----||-------------|
|-------------|---------0---|----------||-------------|


|---------|---------|-0-----||
|---0---0-|---0---0-|-0-----||
|---0---0-|---0---0-|-0-----||
|---------|---------|-2-----||
|---------|-2-------|-2-----||
|-0---3---|-----3---|-0-----||

comments
We did not receive enough feedback on this tab! Please rate:
print report bad tab
1 2 3 4 5
I want to post or [tab]
guest
You may want to rate the tab now too:
select rating
Please do not post tabs as comments. Select "correction" instead!