Oops, an error
Loading. Please wait.

Eyes With Tears Tab

211 views 1 this week
no commentswrite comment
1 2 3 4 5
please rate
add to favorites
launch autoscroll
font size
0
reset
how to read this tab
guitar tuner
Autoscroll
slow
fast
+/-
esc
set tempo
stop
Help us to improve Ultimate-Guitar.com Take our survey!
×
Contributor
globe20 4,343
Eyes With Tears - Mikis Theodorakis (b.1925)

tuning - E A D G B E

timing = 6/8

||--------------|-0-----0-----|-------------|-------------|-0-----------|
||------1-------|-------1-----|-3---3-1-----|-3-----1-----|-----1-------|
||*-2-----3---2-|-----2---2---|-----------2-|---3-----2---|-------2---0-|
||*---2-----0---|---2-------2-|---3-----2---|-----0-----2-|---2-----2---|
||--0-----1-----|-0-----------|-1-----0-----|-------0-----|-0-----3---1-|
||--------------|-------------|-------------|-3-----------|-------------|

|-------------|-------------|-0-----0-----|-1---1-------|-0------------|
|-------------|-3---3-3-1-3-|-------1-----|-------3---3-|-----1--------|
|-3-----2-----|-------------|-----2---2---|---3-----3---|-------2------|
|-----0---2---|---3---------|---2-------2-|-0-----------|---2-----2----|
|---1---0---3-|-1-----1-0-1-|-0-----------|-------1-----|-0-----0---3--|
|-3-----------|-------------|-------------|-------------|--------------|

|-3---3-1---1-|-0-----0-----|-------------|-0-----------|--------------|
|-------------|-------1-----|-6---6-3---3-|-----1-------|-----3-1------|
|-------------|-----2---2---|---3-----0---|-------2---2-|-3---------3--|
|---0-----0---|---2-------2-|-0-----------|---2-----2---|---0-----0----|
|-1-----------|-0-----------|-------1-----|-0-----3---0-|--------------|
|-------3-----|-------------|-------------|-------------|-3-----3------|

|--------------||------------||
|-------1------||------------||
|-2---2---2---*||------------||
|---2-------2-*||------------||
|-0------------||-0----------||
|--------------||------------||

comments
We did not receive enough feedback on this tab! Please rate:
print report bad tab
1 2 3 4 5
I want to post or [tab]
guest
You may want to rate the tab now too:
select rating
Please do not post tabs as comments. Select "correction" instead!