Oops, an error
Loading. Please wait.

On A Day In May You Left Me Tab

1,143 views 3 this week
no commentswrite comment
1 2 3 4 5
excellent!
x 5
add to favorites
launch autoscroll
font size
0
reset
how to read this tab
guitar tuner
Autoscroll
slow
fast
+/-
esc
set tempo
stop
Help us to improve Ultimate-Guitar.com Take our survey!
×
Author
Tabbers playing skills
intermediate +
  On A Day In May You Left Me
Music by Mikis Theodorakis (b.1925)


low d tuning

                                                             I III...
e|-----1--|--0-----------|--------0--------|---------------|-1--5--3--|
b|--3--3--|-----2--3-----|--2--3-----------|--3------------|-1--------|
g|-----2--|-----2-----2--|--------0--2--3--|--2--0---0-----|----5-----|
d|--0--0--|-----------3--|--2--3-----------|--0----3----2--|-3--------|
a|--------|--0-----------|--0--------------|---------------|----3-----|
d|--------|--------0-----|-----------------|---------------|----------|

       I......    III                           III.........
e|--5-----1-----|--3--1--0--1p0---0--|--1-----|--5---------3--|
b|-----1-----1--|--3-----2------3----|--3--3--|---------------|
g|--------------|--3-----2-----------|--2--2--|----2---2------|
d|-----3-----3--|--------------------|--0--3--|------3---3----|
a|--3-----0-----|--------0-----------|--------|---------------|
d|--3-----------|--5-----------------|--0-----|--0------------|

                                                     III...
e|--1---------0-----|--------0-------|-------------|-----3--|
b|---------------3--|--2--3----------|--3----------|--3--3--|
g|-----2---2--0-----|--------0--2-3--|--2--0---0---|--3--3--|
d|-------3-------3--|--2--3----------|--0----3---2-|--0--0--|
a|------------------|--0-------------|-------------|--------|
d|--0---------------|----------------|-------------|--------|

                     II tr......                       II.......
e|--1--3--1--|--0-------------------|---------------|--5---------|
b|--3--3--3--|-----3--2h3p2h3p2--3--|--3------------|--2----2-3--|
g|--2--3--2--|--3-----2-------------|--2------------|--2--2------|
d|--0--------|--5--3--2-------------|--3-----0------|--2---------|
a|-----1--0--|--------0-------------|--5-------3-1--|--0---------|
d|-----------|--5-------------------|------0--------|------------|

      I.......
e|--0--1--3--1--|--0---------------------------|---------------|
b|--2-----3-----|--2---------------------------|------------3--|
g|--0--2--3--2--|--2------------0-2-3-3p2-0----|---------------|
d|--------------|---------0-2-3-------------3--|--2-0---0-2-3--|
a|--0-----1-----|--0--0-4----------------------|------4--------|
d|--------------|------------------------------|---------------|


e|--------0--1--|--0--3--1--0-----|---------------------|
b|--2--3--------|--------------3--|---------------------|
g|--------0--2--|--0--3--2--0--2--|----------------0----|
d|--2--3--------|--------------3--|------0-2-3-3p2---3--|
a|--------0-----|--0--------------|----0----------------|
d|--------------|-----------------|--0------------------|

e|----------------------|---------9--10--|--12--13--15--13--|
b|----------------------|-----10---------|------------------|
g|----------------------|-----12--9--10--|--12--14--14--14--|
d|--2p0---2-0-3-2-------|----------------|------------------|
a|------4---------5p3p1-|--0-------------|---0-------0------|
d|----------------------|----------------|------------------|


e|--12---------|---------------------|-------------10--|--9--10--12--13--|
b|--10---------|---------------------|-----------------|-----------------|
g|---9---------|------0-2-3-3p2-0----|-------------10--|--9--10--12--14--|
d|--11------0--|--2-3-------------3--|--2-0---0-2------|-----------------|
a|---0--0-4----|---------------------|------4----------|----------0------|
d|-------------|---------------------|-----------------|-----------------|



e|--12--15--13--12--10--|---------------------|-------------------|
b|----------------------|---------------------|-------------------|
g|--12--15--14--12--10--|----------------0----|-------------------|
d|----------------------|------0-2-3-3p2---3--|--2-0---2-0-2-3-4--| 
a|---0------------------|----0----------------|------4------------|
d|----------------------|--0------------------|-------------------|

   III.......         V...............    III.......
e|--3--3-3--3-1-3--|--5--5--5-----------|-----3--3-3--6-----6-----|
b|--3--------------|--5--------5--------|--3----------8--6--5-----|
g|--3--------------|--6----------6------|--3-------------------7--|
d|--0--------------|--7------------7----|--0----------------------|
a|--5--------------|--0--------------0--|--5----------------------|
d|--5--------------|--------------------|--5----------------------|

    V III
e|--5--5-----|-----|-----------------|-----------|------------------|
b|--5--3--5--|--5--|-----------------|-----------|------------------|
g|--6--3-----|--6--|--2--------------|-0---------|----------0-------|
d|--7--3-----|--7--|-----3-2-0--2-3--|----3-2-0--|--3--2-0-----3-3--|
a|--0--0-----|--0--|--0--------------|-1---------|--0-------1-------|
d|-----------|-----|--0------0-------|-0---------|--0-------0-------|

       V......                                 III                  III                   
e|-----5-5-5-5--|--------0--|--5-------------|--3--1-0----|--1--0----3--1-1-0-|
b|-------5------|------2----|--6--6-5---5-6--|--3------3--|--3----3--3--------|
g|---------6----|-----------|--7------7------|--3---------|--2-------3--------|
d|--2--------7--|----2------|--0-------------|--5---------|--0----------------|
a|--0--0--------|--0--------|--0-------------|------------|--0----------------|
d|--------------|-----------|--0-------------|--5---------|----------5--------|

           
e|--0-----|
b|--3--2--|
g|--2--2--|
d|--2--2--|
a|--0--0--|
d|--------|

  Fine 

e|-----1--|--0-----------|--------0-------|--------------|
b|--3--3--|-----2--3-----|--2--3----------|--3-----------|
g|--2--2--|-----2-----2--|--------0--2-3--|--2--0---0----|
d|--3--0--|-----------3--|--2--3----------|--0----3---2--|
a|--5-----|--0-----------|--0-------------|--------------|
d|--0-----|--------0-----|----------------|--------------|


e|--1--5--3--|--5-----1-----|--3--1--0--1p0---0--|--1-----|
b|--1--------|-----1-----1--|--3-----2------3----|--3--3--|
g|-----5-----|--------------|--3-----2-----------|--2--2--|
d|--3--------|-----3-----3--|--------------------|--0--3--|
a|-----3-----|--3-----0-----|--------0-----------|--------|
d|--3--------|--3-----------|--5-----------------|--0-----|

   II...........
e|--5----------3--|--1---------0-----|--------0-------|--------------|
b|----------------|---------------3--|--2--3----------|--3-----------|
g|-----2---2------|-----2---2--0-----|--------0--2-3--|--2--0---0----|
d|-------3---3----|-------3-------3--|--2--3----------|--0----3---2--|
a|----------------|------------------|--0-------------|--------------|
d|--0-------------|--0---------------|----------------|--------------|

   III...                     II tr.
e|-----3--|--1--3--1--|-----------------|-------||
b|--3--3--|--3--3--3--|--5--3--2h3p2--3-|---3---||
g|-----3--|--2--3--2--|--3-----2--------|---2---||
d|--0--0--|--0-----0--|--5--3--2--------|---3---||
a|--------|-----1-----|--------0--------|-------||
d|--------|-----------|--5--------------|---0---||

Suggest correction new What's this?
You can suggest a correction to this tab. Community and Mods will review your correction and vote to approve or reject it.
comments
print report bad tab
guest
You may want to rate the tab now too:
select rating
Please do not post tabs as comments. Select "correction" instead!