Oops, an error
Loading. Please wait.

Tiang Argue Tab

by Mila
123 views 1 this week
no commentswrite comment
1 2 3 4 5
please rate
add to favorites
launch autoscroll
font size
0
reset
how to read this tab
guitar tuner
Tab Pro tools
  • play this tab
  • loop segment
  • change instrument
  • show fretboard
  • metronome
×
Best way to learn
"Tiang Argue"
Autoscroll
slow
fast
+/-
esc
set tempo
stop
Contributor
Artist: Mila ft. Kaew (FFK-Faye Fang Kaew)
Song: เถียง Tiang Argue
Album: Deeply Mila

Tuning: Standard

Intro: (can also be played trough the song)
e|------------------------------------------------------|
B|------------------------------------------------------|
G|------------------------------------------------------|
D|------------------------------------------------------|
A|---------------------5-5-5----------------------7-7-5-|
E|-5h7-7--5h7-7--5h7-7--------5h7-7--5h7-7--5h7-7-------| 

e|-------------------------------------------|
B|-------------------------------------------|
G|-------------------------------------------|
D|-------------------------------------------|
A|---------------------5-5-5-----------------|
E|-5h7-7--5h7-7--5h7-7--------5h7-7--5h7-5h7-| 

Verse:
e|-----------------------------|    |-----------------------------|
B|------------------------9----|    |-----------------------------|
G|-9-11-11--9-11-11--9-11---11-|    |-9-11-11--9-11-11--9-11-11-9-|
D|-----------------------------|    |-----------------------------|
A|-----------------------------|    |-----------------------------|
E|-----------------------------| x3 |-----------------------------|

Prechorus:
e|--------------------------------------------|    |------7~~-|
B|-6-9-9--6-9-9--6-9-9-8-6---6-9-9--6-9-9-8-6-|    |-4/6~-----|
G|--------------------------------------------|    |----------|
D|--------------------------------------------|    |----------|
A|--------------------------------------------|    |----------|
E|--------------------------------------------| x2 |----------|

Chorus:
e|-------------------------------------| 
B|-------------------------------------| 
G|-9-9-9---------------------------6-6-| 
D|-9-9-9--11-11-9-9---7-7-7--11-11-6-6-| 
A|-7-7-7--11-11-9-9---7-7-7--11-11-4-4-| 
E|--------9--9--7-7---5-5-5--9--9------| x2

Postchorus - (play same as the intro)

Verse

Prechorus:
e|--------------------------------------------|    
B|-6-9-9--6-9-9--6-9-9-8-6---6-9-9--6-9-9-8-6-|   
G|--------------------------------------------|    
D|--------------------------------------------|    
A|--------------------------------------------|    
E|--------------------------------------------| 

e|--------------------------------------------------||------7~~-|
B|-6-6-6-6-9-9--6-9-9--6-9-9-8-6---6-9-9--6-9-9-8-6-||-4/6~-----|
G|--------------------------------------------------||----------|
D|--------------------------------------------------||----------|  
A|--------------------------------------------------||----------|
E|--------------------------------------------------||----------| 

Chorus

Break - (don't play anything)

Chorus 1 - (again don't play anything)

Chorus 2

Ending - (play same as the intro)

www.ilovekamikaze.com
comments
We did not receive enough feedback on this tab! Please rate:
print report bad tab
1 2 3 4 5
I want to post or [tab]
guest
You may want to rate the tab now too:
select rating
Please do not post tabs as comments. Select "correction" instead!