Oops, an error
Loading. Please wait.

Along Comes Mary bass

by Milburn
469 views 3 this week
no commentswrite comment
1 2 3 4 5
3 more votes to show rating
add to favorites
×
Save as Personal and add changes to this tab that will be seen only by you. Learn more ›
×
You can save this tab as Personal to edit and correct it or add notes. All changes will be seen only by you. Learn more »
launch autoscroll
font size
0
reset
guitar tuner
edit
Autoscroll
slow
fast
+/-
esc
set tempo
stop
Author
Difficulty
-------------------------------------------------------------------------------
			     SONG NAME - Band Name
-------------------------------------------------------------------------------

Tabbed By : 
e-mail: 

Tuning: Standard

This is the first song I've fully tabbed out and written down so any corrections/
tips greatly appreciated! 



This note is played on guitar but you can play it anyway.

G|-----5~~~~~-------|
D|------------------|
A|------------------|
E|------------------|


Intro/Main Riff



G|---------------------------------------------------------------------------|
D|----------------------------------------------6-6-6-5----------------------|
A|---------------------6---8---10---8---6------------------------------------|
E|-----3---5---6/8-8------------------------8--------------------------------|


G|---------------------------------------------------------------------------|
D|-----------------------------------------------6-6-6-5---------------------|
A|---------------------6-6---8-8--10-10--------------------------------------|
E|-----3---5---6/8-8------------------------8--------------------------------|


G|---------------------------------------------------------------------------|
D|----------------------------------------------6-6-6-5----------------------|
A|---------------------6---8---10---8---6------------------------------------|
E|-----3---5---6/8-8------------------------8--------------------------------|


G|---------------------------------------------------------------------------|
D|---------------------------------------------------------------------------|
A|---------------------6---8---10---8---6---------//10-10-10-10-10-----------|
E|-----3-3--------/8------------------------8--------------------------------|


Verse


G|---------------------------------------------------------------------------|
D|---------------------------------------------------------------------------|
A|-----3-3-3-3-3-3-3-3-------------------------------------------------------|    x3
E|-----------------------4-4-4---3-3-3-3-3-----------------------------------|



G|---------------------------------------------------------------------------|
D|---------------------------------------------------------------------------|
A|---------------------------------------------------------------------------| - first ending
E|-----6-6-6-6-6-6-6-----///18-18-18-18--------------------------------------| of verse



G|---------------------------------------------------------------------------|
D|---------------------------------------------------------------------------|     x2
A|---------------------------------------------------------------------------| - second ending 
E|-----6-6-6-6-6-6-6----3-3-3-3-3--------------------------------------------| of verse



Bridge



G|---------------------------------------------------------------------------|
D|---------------------------------------------------------------------------|
A|-------------------------------------3-3-3----3-3-3---3-3-3---3-3-3--------|
E|-----1-1-1---1-1-1---1-1-1---1-1-1-----------------------------------------|



G|---------------------------------------------------------------------------|
D|-------------------------------------/5-5-5-5-5-5-5-5----------------------|
A|---------------------------------------------------------------------------|
E|-----1-1-1---1-1-1---1-1-1---1-1-1-----------------------------------------|



Chorus



G|---------------------------------------------------------------------------|
D|----------1-1-1------------------------------------------------------------|
A|----3-3-------------------3-3-3--------------------------------------------|     x3
E|------------------3-3-3----------------------------------------------------|


G|---------------------------------------------------------------------------|
D|----------1-1-1------------------------------------------------------------|
A|----3-3--------------------------------------------------------------------|     x1
E|------------------3-3-3-3-3-3-3--------------------------------------------|


That's pretty much it, just gotta work out when he plays which section. I think 
the bassist plays with a pick but it's perfectly doable with fingers ;)

Any corrections please email me at milo.larkin@hotmail.co.uk


| /  slide up
| \  slide down
| h  hammer-on
| p  pull-off
| ~  vibrato
| +  harmonic
| x  Mute note
===============================================================================

            
            
Suggest correction
Creating personal tab
Creating personal tab
You can edit any tab online and save it as your Personal.

You can edit, replace or remove any tab part or add personal notes – all changes will be seen only by you.

Personal tabs can be accessed anytime from any device, even offline.
Learn more »
Give kudos to tab author, rate the tab!
1 2 3 4 5
comments
print report bad tab
guest
You may want to rate the tab now too:
select rating
Wanna post a correction for this tab? Suggest correction