Oops, an error
Loading. Please wait.

Send In The Boys tab

version 3
version 3

Whole song

Interactive

by Milburn
988 views 1 this week
1 commentread comment
1 2 3 4 5
2 more votes to show rating
add to favorites
×
Save as Personal and add changes to this tab that will be seen only by you. Learn more ›
×
You can save this tab as Personal to edit and correct it or add notes. All changes will be seen only by you. Learn more »
launch autoscroll
font size
0
reset
how to read this tab
guitar tuner
edit
Autoscroll
slow
fast
+/-
esc
set tempo
stop
Difficulty
Milburn are a new indie band that come from Sheffield. This song is one of my 
Most of the tab is right. Any problems email me.

Artist: Milburn.
Song: Send In The Boys
Album: Well Well Well
Genre: Indie/Rock
Tunning: Standard
Difficulty: Novice

Tabbed By: Alun H
Email: Ghost.Busters@hotmail.co.uk

Intro One:
E|--7--|
B|--8--|
G|--9--|
D|--9--|
A|--7--|
E|--x--|

Intro Two/Verse One:
E|------------------------------------------------------------------------|
B|------------------------------------------------------------------------|
G|------------------------------------------------------------------------|
D|-----------------------------------------7-5-----5-7-9------------0-----|
A|-----7-5------7-5--------5-7----7-5---5------8-7----------7-5-----0-----|
E|--5------8-5------8-5--8-----5------8------------------5------8-5-0--3--|

He had her down in the cellar with a knife pointing at her throat
He wouldn't let her go oh no, he wouldn't ler her go
She kicked and screamed
Someone heard through the walls from next door
'What's the crack? what's the score?'
Next door neighbour gave a call
No one answered, so the boys are coming
The boys are coming for you

End On
E|--x--|
B|--x--|
G|--x--|
D|--7--|
A|--7--|
E|--5--|

Chorus:
A5                   C5
They'll take you on a holiday
G5                    E5                G5             A5
Maybe to the seaside, maybe they'll just give you away
                       C5
They'll drop you off and say goodbye
      G5
You're looking pretty dangerous
      E5                 G5
You're looking pretty dangerous
A5                         C5
And nobody knows just quite what you will do next
         G5                 E5            G5          A5
So we will send in the boys, the boys are coming for you

Interlude:
E|--------------------------------------|
B|--------------------------------------|
G|--------------------------------------|
D|--------------------------------0-----|
A|-----7-5------7-5------7-5------0-----|
E|--5------8-5------8-5------8-5--0--3--|

Verse Two:
E|------------------------------------------------------------------------|
B|------------------------------------------------------------------------|
G|------------------------------------------------------------------------|
D|-----------------------------------------7-5-----5-7-9------------0-----|
A|-----7-5------7-5--------5-7----7-5---5------8-7----------7-5-----0-----|
E|--5------8-5------8-5--8-----5------8------------------5------8-5-0--3--|

Coppers came heavy handed
Closed the street and demanded us to stay at home today
Oh you must stay at home today
Calm him down, reassure him
Leave the girl this is stupid, hold your hands up
We'll get you through this, yeah we'll get you through this
So the boys are coming, the boys are coming for you

End On
E|--x--|
B|--x--|
G|--x--|
D|--7--|
A|--7--|
E|--5--|

Chorus:
A5                   C5
They'll take you on a holiday
G5                    E5                G5             A5
Maybe to the seaside, maybe they'll just give you away
                       C5
They'll drop you off and say goodbye
      G5
You're looking pretty dangerous
      E5                 G5
You're looking pretty dangerous
A5                         C5
And nobody knows just quite what you will do next
         G5                 E5            G5          A5
So we will send in the boys, the boys are coming for you

Solo:
E|---------------------------------------------------|
B|---------------------------------------------------|
G|---------------------------------------------------|
D|--------------------------------------5---5-7-5----|
A|--------5-6-7-------7-6-5-------5-6-7---7-------7--| x3
E|--5-5-5-------5-5-5-------5-5-5--------------------|

E|-------------------------------------------------------|
B|-------------------------------------------------------|
G|----------------7----7-7b----7-------------------7-7b--|
D|--7-7-7-10-7-10---10------10---10-7-10-7----7-10-------|
A|-----------------------------------------10------------|
E|-------------------------------------------------------|

(You can work out the rest of the solo if you like as thats all I can work out. It's 
using those notes. I will figure it out another time)

Chorus:
A5                   C5
They'll take you on a holiday
G5                    E5                G5             A5
Maybe to the seaside, maybe they'll just give you away
                       C5
They'll drop you off and say goodbye
      G5
You're looking pretty dangerous
      E5                 G5
You're looking pretty dangerous
A5                         C5
And nobody knows just quite what you will do next
         G5                 E5            G5          A5
So we will send in the boys, the boys are coming for you

Thats it. Any problems email me or add me on msn.
Enjoy.

            
            
Suggest correction
Creating personal tab
Creating personal tab
You can edit any tab online and save it as your Personal.

You can edit, replace or remove any tab part or add personal notes – all changes will be seen only by you.

Personal tabs can be accessed anytime from any device, even offline.
Learn more »
Give kudos to tab author, rate the tab!
1 2 3 4 5
comments
print report bad tab
1 comment total.
0 reply
JordanTomMoores 35 May 28, 2013 03:41 AM

The rest of the solo is something along the lines of this

e|---------------------------------------------------------------------------|
B|---------------------------------------------------------------------------|
G|-7b888888888888r7777-7-5---5-------5-7-5---5---------------5-----5---5-----|
D|-------------------------7---7-5-7-------7---7-5---5-7-777---7-7---7---7-7-|
A|-------------------------------------------------7-------------------------|
E|---------------------------------------------------------------------------|

e|-------------------------------------|
B|-------------------------------------|
G|-5---5-------------------------------|
D|---7---7-77-55----55-----------------|
A|---------------77----77-55-33--------|
E|------------------------------5-3-5--|

guest
Wanna post a correction for this tab? Suggest correction