Oops, an error
Loading. Please wait.

Showroom bass

version 1
version 1

Whole song

Interactive

by Milburn
730 views 1 this week
no commentswrite comment
1 2 3 4 5
1 last vote to show rating
add to favorites
×
Save as Personal and add changes to this tab that will be seen only by you. Learn more ›
×
You can save this tab as Personal to edit and correct it or add notes. All changes will be seen only by you. Learn more »
launch autoscroll
font size
0
reset
guitar tuner
edit
Autoscroll
slow
fast
+/-
esc
set tempo
stop
Difficulty
This is my first tab and to be honest I'm not sure how close it is to right, but I don't 
its toooo bad.

Verse
G|---------------------|
D|------------4-4--3-3-|
A|--3-3--6-6-----------|
E|---------------------|

The Book that you read…
G|-------------------|
D|-------------------|
A|--3~~-3~~-3~~-3~~~-|
E|-------------------|

Bridge
G|--------------------------------------------------|
D|--------------------------------------------------|
A|--3--3--6--6--3--3--6--6--------------------------| x2
E|---------------------------3--3--6--6--3--3--6--7-|

He’s always saying that he’s oh so right…
G|--------------------------------------------------------------|
D|--3---3-3----------3---3-3---------3---3-3-----------------3--|
A|----------3---3-3----------6---3-6----------3---3-3-6~~~~-----|
E|--------------------------------------------------------------|

Bass Solo (2.15)
G|---------------------|   |----------------------|
D|------------4-4--3-3-|x3 |-----------4--3-------|
A|--3-3--6-6-----------|   |--3-3--6-6-------6--5-|
E|---------------------|   |----------------------|

(2.21)
G|----------------------------|
D|-------------3--------------|
A|--3-3---3-6-------------6-5-| x4
E|----------------3-3---3-----|

(2.34)
G|-------------------------------------------------|
D|--------------------------------------3-3---3-3--|
A|--3-3---3-3---------------3-3---3-3--------------|
E|--------------3-3---3-3--------------------------|

|----------------------------|
|-5-3------------------------|
|-----6-5--3-3--3-3----------|
|-------------------3-3--3-3-|

Its evidential that you’ve not....
G|------------------------------------------------------|
D|--3------------3-----5------3-------------------------|
A|--------------------------------------------6-----8---|
E|---------3--------------------------3-----------------|

Outro
G|----------------------------------------|
D|----------------------------------------|
A|--3-3--6-6--3-3--6-6--------------------|x3
E|----------------------3-3--6-6--3-3--6-7|

|--------------------------------------------|
|--------------------------------------------|
|-3-3--6-6--3-3--6-6---------------------3---|
|---------------------3-3--6-6--3-3--6-7-----|
Suggest correction
Creating personal tab
Creating personal tab
You can edit any tab online and save it as your Personal.

You can edit, replace or remove any tab part or add personal notes – all changes will be seen only by you.

Personal tabs can be accessed anytime from any device, even offline.
Learn more »
Give kudos to tab author, rate the tab!
1 2 3 4 5
comments
print report bad tab
guest
Wanna post a correction for this tab? Suggest correction