Oops, an error
Loading. Please wait.

What Will You Do When The Money Goes bass

version 1
version 1

Whole song

Interactive

by Milburn
1,447 views 6 this week
no commentswrite comment
1 2 3 4 5
1 last vote to show rating
add to favorites
×
Save as Personal and add changes to this tab that will be seen only by you. Learn more ›
×
You can save this tab as Personal to edit and correct it or add notes. All changes will be seen only by you. Learn more »
launch autoscroll
font size
0
reset
guitar tuner
edit
Autoscroll
slow
fast
+/-
esc
set tempo
stop
Author
Difficulty
----------------------------------------------------------------------------
            What Will You Do (When The Money Goes)? - Milburn
----------------------------------------------------------------------------

Tabbed By : Craig Duncan
e-mail: Woahoaho@hotmail.co.uk

Tuning: E/A/D/G
Hey i hope this is ok you guys :P great song, quite tricky at some parts, this tab is 
90-95% kewl :)

Intro: quite syncopated, so listen carefully :)

G|----------------------------------------------------------------|
D|-----------------0-00---------0-2-220-------0-00----------------|
A|---------0-0-023-----3-2--2-3--------3-3-333----3-2--3-2--------|
E|-0-0-023-------------------------------------------------3-0----|

then theres no bass until Joe sings:
  "Maybe that's the reason why you're.."
G|------------------|----|----|----|----|
D|------------------|2---|----|0---|----|  X2
A|------------------|----|0---|----|2---|
E|------------------|----|----|----|----|

Chorus: "what will you do when...."

  1.2.3.4. 1.2.3.4.     1.2.3.4.     1.2.3.4.
G|--------|--------|   |--------|   |--------|
D|2-------|0-------|X2 |2---0---|X4 |2-0-2-0-|X2
A|--------|--------|   |--------|   |--------|
E|--------|--------|   |--------|   |--------|

Verse: Same as Intro but twice

G|-----------------------------------------------------------|
D|-----------------0-00---------0-2-220-------0-00-----------| X2
A|---------0-0-023-----3-2--2-3--------3-3-333----3-2--3-2---|
E|-0-0-023-------------------------------------------------3-|


Chorus

G|--------|--------|   |--------|   |--------|   |----|
D|--------|0-------|X2 |2---0---|X4 |2-0-2-0-|X4 |2\--|
A|--------|--------|   |--------|   |--------|   |----|
E|0-------|--------|   |--------|   |--------|   |----|

Acoustic guitar riff then...

G|--------|--------| Acoustic |--------|--------|
D|2-------|--------|   Riff   |2-------|22222222|
A|--------|--------|   Then   |--------|--------|
E|-0000000|00000000|          |-0000000|--------|

Verse

G|----------------------------------------------------------------|
D|-----------------0-00---------0-2-220-------0-00----------------|
A|---------0-0-023-----3-2--2-3--------3-3-333----3-2--3-2--------|
E|-0-0-023-------------------------------------------------3-0----|

 "Will that be the moment..."

G|------|----|----|----|-----|----|----|----|-----|----|----|----|
D|------|----|0-0-|----|-----|----|0-0-|----|-----|----|0-0-|----|
A|------|0-0-|----|2-2-|-----|0-0-|----|2-2-|-----|0-0-|----|2-2-|
E|0-0-0-|----|----|----|0-0-0|----|----|----|0-0-0|----|----|----|

G|------|------|------|------|---------|----|
D|------|------|------|------|---------|----|
A|0-0-0-|0-0-0-|0-0-0-|0-0-0-|2-22-23-2|32--|
E|------|------|------|------|---------|--3-|

G|----------------------------------------------------------------|
D|-----------------0-00---------0-2-220-------0-00----------------|
A|---------0-0-023-----3-2--2-3--------3-3-333----3-2--3-2--------|
E|-0-0-023-------------------------------------------------3-0----|

Bass comes in at:
 "maybe thats the reason why.."
 (A)                        (B)
G|----|----|----|----|     |----|
D|2---|----|0---|----| X2  |----| wait four bars, play (B) again
A|----|0---|----|2---|     |----|
E|----|----|----|----|     |0---|

Outro:

G|----|----|----|----|
D|2-2-|----|0-0-|----| X8
A|----|0-0-|----|2-2-|
E|----|----|----|----|

End on...

G|--|
D|2-|
A|--|
E|--|

| /  slide up
| \  slide down
| h  hammer-on
| p  pull-off
| ~  vibrato
| +  harmonic
| x  Mute note
============================================================================

            
            
Suggest correction
Creating personal tab
Creating personal tab
You can edit any tab online and save it as your Personal.

You can edit, replace or remove any tab part or add personal notes – all changes will be seen only by you.

Personal tabs can be accessed anytime from any device, even offline.
Learn more »
Give kudos to tab author, rate the tab!
1 2 3 4 5
comments
print report bad tab
guest
You may want to rate the tab now too:
select rating
Wanna post a correction for this tab? Suggest correction