Oops, an error
Loading. Please wait.

What You Could Have Won tab

version 1
version 1

Whole song

by Milburn
1,588 views 1 this week
3 commentsread comments
1 2 3 4 5
1 last vote to show rating
add to favorites
×
Save as Personal and add changes to this tab that will be seen only by you. Learn more ›
×
You can save this tab as Personal to edit and correct it or add notes. All changes will be seen only by you. Learn more »
launch autoscroll
font size
0
reset
how to read this tab
guitar tuner
edit
Autoscroll
slow
fast
+/-
esc
set tempo
stop
WHAT YOU COULD HAVE WON
by Milburn Awsome band


INTRO: A, E


A
It's closing time and it's getting late
E                                                                   A
Can you fetch my coat cos i don't feel too great, anymore
                            E                                          A
But i want to stay, don't you want to stay as well?

I don't think that you do
E
I've got this funny feeling that you don't feel like i do
A
This conversations just passing you by
E
I know it i can see it in your eyes
A
You've had one too many, low and behold
(from here, not quite got the chords yet)
You're telling the secrets that can't be told

You feel so special, it feels so bold

But then you knock me back and i fall
(to here)
I fall to the floor!

CHORUS: A, G#, F#, E   x 8

LEAD AFTER CHORUS
(not spot on, but something like it)

-----------------------------------------------|
-----------------------------------------------|
----------------11--9--------------------------|     x4
--7-7-9-9-11----------11--9--7--9--11----------|
-----------------------------------------------|
-----------------------------------------------|

And after the 4th time..

-----------------------|
-----------------------|
-----------------------|
-----------------------|
-7---------------------|
-----------------------|

Verse 2

I'm walking home
Half pissed and i'm frozen
My minds warmer by the little token of you, in your little way
But they're sleeping in your bed today
And now beeps the phone
I fumble round to answer but i end up putting it on hold
Late night taxis keep passing me by
I feel sick and look to the sky
I've had one too many, low and behold
The late night lovers stay out in the cold
I ring your number i feel so bold
You kick me into touch and i fall
I fall to the floor!

CHORUS: A, G#, F#, E   x 16

And all he wanted was a kiss
And all he wanted was a chance tonight
And yeah your ignorance was bliss
Yeah your ignorance was paradise
Just give him a chance
Just give him a sign or something to tell him what you want
Cos before too long he'll find somebody else
It's then that you'll know that you want him more

Lead through the above, I don't know the amount of times each string is played, it's 
tremelo picking (I think), so you'll have to listen to the song for the correct timings. 
it's not spot on, and I suggest playing around the notes and finding something you prefer.

-------------------------------------------------------------------------------------------|
-------------------------------------------------------------------------------------------|
-------------------------------------------------------------------------------------------|      x2
---------------------------------------------9-9-9-9-11-11-11-11-9-9-9-9-9-----------------|
--7-7-7-7-7-7-7--9-9--11-11-11-11-11---------------------------------------11-11-11-11-11--|
-------------------------------------------------------------------------------------------|

------------------------------------------------------------------------------|
------------------------------------------------------------------------------|
------------------------------------------------------------------------------|
-9-9-9-9-9-9-9---11-11-11-11-11-11---14-14-14-14-14-14-14--16-16-16-16-16-16--|
------------------------------------------------------------------------------|
------------------------------------------------------------------------------|

You call out his name and he doesn't respond
Oh he knocks you back and you fall...

SOLO: There are a few bits I haven't quite worked out yet, thought lots of it is here (I think).

-----------------------------------------------|
-----------------------------------------------|
----------------11--9--------------------------|     x8
--7-7-9-9-11----------11--9--7--9--11----------|
-----------------------------------------------|
-----------------------------------------------|


------------------------------------------------|
------------------------------------------------|
------------------------------------------------|     x6
------------------------------------------------|
---7--7---9------11---9---7---------------------|
------------------------------------------------|

Again, I don't know the exact amount of times each note is played here, so you'll have to have a listen.
------------------------------------------------------------------|
------------------------------------------------------------------|
---------------------------------------------7-7-7----------------|
---7-7-7-7-7-7-7---11-11-11-11-11-11------------------------------|
------------------------------------------------------------------|
------------------------------------------------------------------|

an unknown bit which is still to come...

---0--0---2-------4---2--0----------------------|
------------------------------------------------|
------------------------------------------------|     x4
------------------------------------------------|
------------------------------------------------|
------------------------------------------------|

            
            
Suggest correction
Creating personal tab
Creating personal tab
You can edit any tab online and save it as your Personal.

You can edit, replace or remove any tab part or add personal notes – all changes will be seen only by you.

Personal tabs can be accessed anytime from any device, even offline.
Learn more »
Give kudos to tab author, rate the tab!
1 2 3 4 5
comments
print report bad tab
3 comments total.
0 reply
Adam_SAFC 10 Sep 23, 2006 05:45 AM

the bit after the chorus is

------------------------------------|
------------------------------------|
-----------------9------------------|
-------------------11--9------------|
---7-7-9-9-11-11---------7-9-11-9-7-|
------------------------------------|

------------------------------------|
------------------------------------|
-----------------9------------------|
-------------------11--9----9-------|
---7-7-9-9-11-11---------11---11----|
------------------------------------|

0 reply
joewright 31 Dec 26, 2006 09:11 AM

yeah that sounds right,
thanks adam

0 reply
footyfandan 43 Sep 20, 2007 08:14 AM

I'll help you out mate:
______________________________________________
A
You've had one too many, low and behold
C#m
You're telling the secrets that can't be told
E
You feel so special, it feels so bold
B
But then you knock me back and i fall
(to here)
I fall to the floor!
______________________________________________

Then rather than:

CHORUS: A, G#, F#, E x 8

it's:

CHORUS: A, G#m, F#m, E x 6

guest
Wanna post a correction for this tab? Suggest correction