Oops, an error
Loading. Please wait.

Skiptracing bass

2,434 views 57 this week
4 commentsread comments
1 2 3 4 5
x 9
add to favorites
×
Save as Personal and add changes to this tab that will be seen only by you. Learn more ›
×
You can save this tab as Personal to edit and correct it or add notes. All changes will be seen only by you. Learn more »
launch autoscroll
font size
0
reset
guitar tuner
edit
Autoscroll
slow
fast
+/-
esc
set tempo
stop
About this tab version
Bass as played on the studio version. listen to recording for timing. long live Mothers Club. Was this info helpful? Yes No
[Intro]

G|-------------|-----------------|----------------|----------------|
D|-------------|-----------------|----------------|----------------|
A|-----9----11-|-12---11-9-------|-7--9--11------7|-10--9--7-------|
E|--7----------|----------------7|----------------|--------------7-|
    
G|------------|------------|--------------|-------------|
D|------------|------------|--------------|-------------|
A|-6-----6----|-5----5-----|-4------4-----|-3--5/7\3----|
E|----6-----6-|----5-----5-|-----4------4-|-------------|

[Verse] 
(same as Intro except for the tiny variation at the end of bar 4)

G|-------------|-----------------|----------------|----------------|
D|-------------|-----------------|----------------|----------------|
A|-----9----11-|-12---11-9-------|-7--9--11------7|-10--9--7-------|
E|--7----------|----------------7|----------------|-----------7--9-|
    
G|------------|------------|--------------|-------------|
D|------------|------------|--------------|-------------|
A|-6-----6----|-5----5-----|-4------4-----|-3--5/7/3----|
E|----6-----6-|----5-----5-|-----4------4-|-------------|(x2)                      

[First Chorus]  

G|---------------|----------|----------|--------------------------|
D|---------------|------7-5-|-4--------|-4------------------------|      
A|--7------7-----|---/5-----|---5------|----6----6----\7----7----9|
E|-----7-----7-6-|5---------|------5---|------7----7-----7---7----|

[Second Chorus]  

G|---------------|----------|---------------|----------------|--------------|-----------|
D|---------------|------7-5-|-4-------------|----9--7--------|--------------|--7----7-5-|           
A|--7------7-----|--(7)-----|---5----5------|---------10--9--|7-------7-----|-----------|
E|-----7-----7-6-|5---------|------5---5-6--|7---------------|----7-----7-6-|5---5------|

G|--------------|----------------|--------------|-----------|-------------|------------|-----------|
D|-4------------|-----9--7-------|--------------|--7---7--5-|-4-----------|-4----------|-----------|
A|---5----5-----|----------10--9-|-7------7-----|-----------|---5-----5---|---6----6--7|----7----5-|
E|------5---5-6-|-7--------------|----7-----7-6-|5---5---5--|------5-----5|------7-----|-7---7-----|

[Solo] 
Key Change; up 3 semitones.
This part is more or less the same as the intro/verse only translated up 3 semitones (frets) and with 
minor variations.

G|--------------|-----------------|----------------|------------------|
D|--------------|-----------------|----------------|------------------|
A|-----12----14-|-15---14-12------|-10--12--14---10|-13--12--10-------|
E|--10----------|---------------10|----------------|--------------10--|
    
G|------------|------------|--------------|-------------|
D|------------|------------|--------------|-------------|
A|-9-----9----|-8----8-----|-7------7-----|-6--8/10\6---|
E|---9-9----9-|----8-----8-|---7-7------7-|-------------|

[Outro] 
(same as Second Chorus)

G|---------------|----------|---------------|----------------|--------------|-----------|
D|---------------|------7-5-|-4-------------|----9--7--------|--------------|--7----7-5-|           
A|--7------7-----|--(7)-----|---5----5------|---------10--9--|7-------7-----|-----------|
E|-----7-----7-6-|5---------|------5---5-6--|7---------------|----7-----7-6-|5---5------|

G|--------------|----------------|--------------|-----------|-------------|------------|-----------|
D|-4------------|-----9--7-------|--------------|--7---7--5-|-4-----------|-4----------|-----------|
A|---5----5-----|----------10--9-|-7------7-----|-----------|---5-----5---|---6----6--7|----7----5-|
E|------5---5-6-|-7--------------|----7-----7-6-|5---5---5--|------5-----5|------7-----|-7---7-----|

Tab for Anais.



************************************

| (n) Ghost note
| /   Slide up
| \   Slide down

************************************

            
            
Suggest correction
Creating personal tab
Creating personal tab
You can edit any tab online and save it as your Personal.

You can edit, replace or remove any tab part or add personal notes – all changes will be seen only by you.

Personal tabs can be accessed anytime from any device, even offline.
Learn more »
comments
print report bad tab
4 comments total. Showing first comments.
+4 reply
GucciAmen 10 Jan 27, 2017 12:32 PM

awesome tab man, thanks! any way you could do one for windowpane?

+1 reply
arbr3 10 Apr 13, 2017 03:38 PM

Thanks so much dude, I agree with GucciAmen, if you were to make one for Windowpane that would be the bee's knees

+1 reply
Topas_Bass 184 May 26, 2017 08:59 PM

On spot! Great tab!

guest
You may want to rate the tab now too:
select rating
Wanna post a correction for this tab? Suggest correction