Oops, an error
Loading. Please wait.

Skiptracing tab

1,519 views 96 this week
3 commentsread comments
1 2 3 4 5
x 5
add to favorites
×
Save as Personal and add changes to this tab that will be seen only by you. Learn more ›
×
You can save this tab as Personal to edit and correct it or add notes. All changes will be seen only by you. Learn more »
launch autoscroll
font size
0
reset
how to read this tab
guitar tuner
edit
Autoscroll
slow
fast
+/-
esc
set tempo
stop
Author
Difficulty
Chords for skiptracing, feel free to correct anything you think is wrong.
God bless Finn Jones' Soul.

[Intro/Verse]

  B6sus2   Ebm7b5   Emaj9   Em6add9  Ebm7    D9     C#min9 
e|--x----|---x---|----x---|---x----|-(4)--|--(7)--|---(2)---|
B|--7----|---7---|----7---|---7----|-7----|--5----|---4-----|
G|--6----|---6---|----8---|---6----|-6----|--5----|---4-----|
D|--6----|---7---|----6---|---5----|-4----|--4----|---2-----|
A|--x----|---6---|----7---|---7----|-6----|--5----|---4-----|
E|--7----|---x---|----x---|---x----|------|--x----|---------|
   C13
e|--5----|
B|--x----|
G|--3----|
D|--2----|
A|--3----|
E|-------|

-Studio version of the intro the guitar doesn't play the chord extensions,
(parts in brackets), but live he plays around with them more, arpeggios etc.
-Intro plays C13 as last chord, verse plays C9

[Chorus]

e|--x---|--x---|-----|--x--|
B|--7---|--7---|--5--|--8--|
G|--7---|--6---|--6--|--8--|
D|--5---|--5---|--4--|--7--|
A|--7---|--x---|--5--|--x--|
E|--x---|--5---|-----|--7--|
Finish With;
e|--5---|---6----|
B|--7---|---7----|
G|--7---|---x----|
D|--5---|---5----|
A|--7---|---x----|
E|------|---6----|
Not 100% sure the last 2 are right, the most important note is the highest one
so as long as that goes 5 to 6 on the e string jusr use whatever chord sounds ok.

[Solo Chords]
Key Change

 Dmaj7   Am6  Gmaj7  C9   F#min7  F7     Gmaj9    D#9  
e|-----|-----|-----|-----|------|------|-------|------|
B|--7--|--5--|--3--|--3--|--10--|--10--|--10---|--6---|
G|--6--|--5--|--4--|--3--|--9---|--8---|--11---|--6---|
D|--7--|--4--|--4--|--2--|--7---|--10--|--9----|--5---|
A|--5--|-----|-----|--3--|--9---|--8---|--10---|--6---|
E|-----|--5--|--3--|-----|------|------|-------|------|



************************************

| x   Dead note
| (n) Variation/Extension


************************************


            
            
Suggest correction
Creating personal tab
Creating personal tab
You can edit any tab online and save it as your Personal.

You can edit, replace or remove any tab part or add personal notes – all changes will be seen only by you.

Personal tabs can be accessed anytime from any device, even offline.
Learn more »
comments
print report bad tab
3 comments total.
+2 reply
tyu12 339 Feb 02, 2017 03:59 PM

Man, i love you.

+2 reply
robbiebroadstock 23 Apr 07, 2017 07:15 AM

BRILLIANT i LOVE YOU

+1 reply
Zac Marshman 113 Apr 08, 2017 01:59 AM

👍

guest
You may want to rate the tab now too:
select rating
Wanna post a correction for this tab? Suggest correction